  0
SECTION
  2
HEADER
  9
$ACADVER
  1
AC1014
  9
$ACADMAINTVER
 70
     9
  9
$DWGCODEPAGE
  3
ANSI_1252
  9
$INSBASE
 10
2.609375
 20
1.907499999999999
 30
0.0
  9
$EXTMIN
 10
0.8663934207728567
 20
1.186981395917418
 30
0.0
  9
$EXTMAX
 10
4.351612742519986
 20
2.1875
 30
0.0
  9
$LIMMIN
 10
0.0
 20
0.0
  9
$LIMMAX
 10
18.0
 20
12.0
  9
$ORTHOMODE
 70
     1
  9
$REGENMODE
 70
     1
  9
$FILLMODE
 70
     1
  9
$QTEXTMODE
 70
     0
  9
$MIRRTEXT
 70
     0
  9
$DRAGMODE
 70
     2
  9
$LTSCALE
 40
1.0
  9
$OSMODE
 70
    39
  9
$ATTMODE
 70
     1
  9
$TEXTSIZE
 40
0.125
  9
$TRACEWID
 40
0.05
  9
$TEXTSTYLE
  7
ROMANS
  9
$CLAYER
  8
0
  9
$CELTYPE
  6
BYLAYER
  9
$CECOLOR
 62
   256
  9
$CELTSCALE
 40
1.0
  9
$DELOBJ
 70
     1
  9
$DISPSILH
 70
     1
  9
$DIMSCALE
 40
1.0
  9
$DIMASZ
 40
0.125
  9
$DIMEXO
 40
0.125
  9
$DIMDLI
 40
0.375
  9
$DIMRND
 40
0.0
  9
$DIMDLE
 40
0.0
  9
$DIMEXE
 40
0.125
  9
$DIMTP
 40
0.0
  9
$DIMTM
 40
0.0
  9
$DIMTXT
 40
0.125
  9
$DIMCEN
 40
-0.125
  9
$DIMTSZ
 40
0.0
  9
$DIMTOL
 70
     0
  9
$DIMLIM
 70
     0
  9
$DIMTIH
 70
     1
  9
$DIMTOH
 70
     1
  9
$DIMSE1
 70
     0
  9
$DIMSE2
 70
     0
  9
$DIMTAD
 70
     0
  9
$DIMZIN
 70
     4
  9
$DIMBLK
  1

  9
$DIMASO
 70
     1
  9
$DIMSHO
 70
     1
  9
$DIMPOST
  1

  9
$DIMAPOST
  1

  9
$DIMALT
 70
     0
  9
$DIMALTD
 70
     2
  9
$DIMALTF
 40
25.4
  9
$DIMLFAC
 40
1.0
  9
$DIMTOFL
 70
     0
  9
$DIMTVP
 40
0.0
  9
$DIMTIX
 70
     1
  9
$DIMSOXD
 70
     0
  9
$DIMSAH
 70
     0
  9
$DIMBLK1
  1

  9
$DIMBLK2
  1

  9
$DIMSTYLE
  2
STANDARD
  9
$DIMCLRD
 70
     0
  9
$DIMCLRE
 70
     0
  9
$DIMCLRT
 70
     0
  9
$DIMTFAC
 40
1.0
  9
$DIMGAP
 40
0.09
  9
$DIMJUST
 70
     0
  9
$DIMSD1
 70
     0
  9
$DIMSD2
 70
     0
  9
$DIMTOLJ
 70
     1
  9
$DIMTZIN
 70
     4
  9
$DIMALTZ
 70
     0
  9
$DIMALTTZ
 70
     0
  9
$DIMFIT
 70
     3
  9
$DIMUPT
 70
     0
  9
$DIMUNIT
 70
     2
  9
$DIMDEC
 70
     3
  9
$DIMTDEC
 70
     3
  9
$DIMALTU
 70
     2
  9
$DIMALTTD
 70
     2
  9
$DIMTXSTY
  7
ROMANS
  9
$DIMAUNIT
 70
     0
  9
$LUNITS
 70
     2
  9
$LUPREC
 70
     3
  9
$SKETCHINC
 40
0.1
  9
$FILLETRAD
 40
0.03125
  9
$AUNITS
 70
     0
  9
$AUPREC
 70
     0
  9
$MENU
  1
ACAD
  9
$ELEVATION
 40
0.0
  9
$PELEVATION
 40
0.0
  9
$THICKNESS
 40
0.0
  9
$LIMCHECK
 70
     0
  9
$BLIPMODE
 70
     0
  9
$CHAMFERA
 40
0.0
  9
$CHAMFERB
 40
0.0
  9
$CHAMFERC
 40
0.0
  9
$CHAMFERD
 40
0.0
  9
$SKPOLY
 70
     0
  9
$TDCREATE
 40
2448993.357927893
  9
$TDUPDATE
 40
2452458.292357164
  9
$TDINDWG
 40
0.0010929514
  9
$TDUSRTIMER
 40
0.0010929514
  9
$USRTIMER
 70
     1
  9
$ANGBASE
 50
0.0
  9
$ANGDIR
 70
     0
  9
$PDMODE
 70
     0
  9
$PDSIZE
 40
0.0
  9
$PLINEWID
 40
0.0
  9
$COORDS
 70
     2
  9
$SPLFRAME
 70
     0
  9
$SPLINETYPE
 70
     6
  9
$SPLINESEGS
 70
     8
  9
$ATTDIA
 70
     0
  9
$ATTREQ
 70
     1
  9
$HANDLING
 70
 22529
  9
$HANDSEED
  5
55335
  9
$SURFTAB1
 70
     6
  9
$SURFTAB2
 70
     6
  9
$SURFTYPE
 70
     6
  9
$SURFU
 70
     6
  9
$SURFV
 70
     6
  9
$UCSNAME
  2

  9
$UCSORG
 10
0.0
 20
0.0
 30
0.0
  9
$UCSXDIR
 10
1.0
 20
0.0
 30
0.0
  9
$UCSYDIR
 10
0.0
 20
1.0
 30
0.0
  9
$PUCSNAME
  2

  9
$PUCSORG
 10
0.0
 20
0.0
 30
0.0
  9
$PUCSXDIR
 10
1.0
 20
0.0
 30
0.0
  9
$PUCSYDIR
 10
0.0
 20
1.0
 30
0.0
  9
$USERI1
 70
     0
  9
$USERI2
 70
     0
  9
$USERI3
 70
     0
  9
$USERI4
 70
     0
  9
$USERI5
 70
     0
  9
$USERR1
 40
0.0
  9
$USERR2
 40
0.0
  9
$USERR3
 40
0.0
  9
$USERR4
 40
0.0
  9
$USERR5
 40
0.0
  9
$WORLDVIEW
 70
     1
  9
$SHADEDGE
 70
     3
  9
$SHADEDIF
 70
    70
  9
$TILEMODE
 70
     1
  9
$MAXACTVP
 70
    16
  9
$PINSBASE
 10
1.447193973691456
 20
50.00000000000001
 30
2.131097550385494
  9
$PLIMCHECK
 70
     0
  9
$PEXTMIN
 10
1.000000000000000E+20
 20
1.000000000000000E+20
 30
1.000000000000000E+20
  9
$PEXTMAX
 10
-1.000000000000000E+20
 20
-1.000000000000000E+20
 30
-1.000000000000000E+20
  9
$PLIMMIN
 10
0.0
 20
0.0
  9
$PLIMMAX
 10
12.0
 20
9.0
  9
$UNITMODE
 70
     0
  9
$VISRETAIN
 70
     0
  9
$PLINEGEN
 70
     1
  9
$PSLTSCALE
 70
     0
  9
$TREEDEPTH
 70
  3020
  9
$PICKSTYLE
 70
     1
  9
$CMLSTYLE
  2
STANDARD
  9
$CMLJUST
 70
     0
  9
$CMLSCALE
 40
1.0
  9
$PROXYGRAPHICS
 70
     1
  9
$MEASUREMENT
 70
     0
  0
ENDSEC
  0
SECTION
  2
CLASSES
  0
CLASS
  1
LWPOLYLINE
  2
AcDbPolyline
  3
AutoCAD 2000
 90
        0
280
     0
281
     1
  0
CLASS
  1
ACDBDICTIONARYWDFLT
  2
AcDbDictionaryWithDefault
  3
AutoCAD 2000
 90
        0
280
     0
281
     0
  0
CLASS
  1
ACDBPLACEHOLDER
  2
AcDbPlaceHolder
  3
AutoCAD 2000
 90
        0
280
     0
281
     0
  0
CLASS
  1
LAYOUT
  2
AcDbLayout
  3
AutoCAD 2000
 90
        0
280
     0
281
     0
  0
CLASS
  1
DICTIONARYVAR
  2
AcDbDictionaryVar
  3
AutoCAD 2000
 90
        0
280
     0
281
     0
  0
CLASS
  1
LONG_TRANSACTION
  2
AcDbLongTransaction
  3
AutoCAD 2000
 90
        0
280
     0
281
     0
  0
CLASS
  1
LWPOLYLINE
  2
AcDbPolyline
  3
AutoCAD 2000
 90
        0
280
     0
281
     1
  0
CLASS
  1
HATCH
  2
AcDbHatch
  3
AutoCAD 2000
 90
        0
280
     0
281
     1
  0
CLASS
  1
XRECORD
  2
AcDbXrecord
  3
AutoCAD 2000
 90
        0
280
     0
281
     0
  0
ENDSEC
  0
SECTION
  2
TABLES
  0
TABLE
  2
VPORT
  5
552DC
330
0
100
AcDbSymbolTable
 70
     2
  0
VPORT
  5
55310
330
552DC
100
AcDbSymbolTableRecord
100
AcDbViewportTableRecord
  2
*ACTIVE
 70
     0
 10
0.0
 20
0.0
 11
1.0
 21
1.0
 12
5.585726582297536
 22
1.686950706512376
 13
0.0
 23
0.0
 14
0.015625
 24
0.015625
 15
0.0
 25
0.0
 16
0.0
 26
0.0
 36
1.0
 17
0.0
 27
0.0
 37
0.0
 40
2.282647215150728
 41
4.320930232558139
 42
50.0
 43
0.0
 44
0.0
 50
0.0
 51
0.0
 71
     0
 72
  2000
 73
     1
 74
     0
 75
     1
 76
     0
 77
     0
 78
     0
  0
ENDTAB
  0
TABLE
  2
LTYPE
  5
552D9
330
0
100
AcDbSymbolTable
 70
     1
  0
LTYPE
  5
552E6
330
552D9
100
AcDbSymbolTableRecord
100
AcDbLinetypeTableRecord
  2
BYBLOCK
 70
     0
  3

 72
    65
 73
     0
 40
0.0
  0
LTYPE
  5
552E7
330
552D9
100
AcDbSymbolTableRecord
100
AcDbLinetypeTableRecord
  2
BYLAYER
 70
     0
  3

 72
    65
 73
     0
 40
0.0
  0
LTYPE
  5
552E8
330
552D9
100
AcDbSymbolTableRecord
100
AcDbLinetypeTableRecord
  2
CONTINUOUS
 70
     0
  3
Solid line
 72
    65
 73
     0
 40
0.0
  0
ENDTAB
  0
TABLE
  2
LAYER
  5
552D6
330
0
100
AcDbSymbolTable
 70
     2
  0
LAYER
  5
552E3
330
552D6
100
AcDbSymbolTableRecord
100
AcDbLayerTableRecord
  2
0
 70
     0
 62
     7
  6
CONTINUOUS
  0
LAYER
  5
552F3
330
552D6
100
AcDbSymbolTableRecord
100
AcDbLayerTableRecord
  2
TEXT
 70
     0
 62
     3
  6
CONTINUOUS
  0
ENDTAB
  0
TABLE
  2
STYLE
  5
552D7
330
0
100
AcDbSymbolTable
 70
     3
  0
STYLE
  5
552E4
330
552D7
100
AcDbSymbolTableRecord
100
AcDbTextStyleTableRecord
  2
STANDARD
 70
     0
 40
0.0
 41
1.0
 50
0.0
 71
     0
 42
0.3125
  3
txt
  4

  0
STYLE
  5
552F0
330
552D7
100
AcDbSymbolTableRecord
100
AcDbTextStyleTableRecord
  2
ITALICC
 70
     0
 40
0.0
 41
1.0
 50
0.0
 71
     0
 42
0.125
  3
italicc
  4

  0
STYLE
  5
55300
330
552D7
100
AcDbSymbolTableRecord
100
AcDbTextStyleTableRecord
  2
ROMANS
 70
     0
 40
0.0
 41
1.0
 50
0.0
 71
     0
 42
0.125
  3
romans.shx
  4

  0
ENDTAB
  0
TABLE
  2
VIEW
  5
552DA
330
0
100
AcDbSymbolTable
 70
     0
  0
ENDTAB
  0
TABLE
  2
UCS
  5
552DB
330
0
100
AcDbSymbolTable
 70
     0
  0
ENDTAB
  0
TABLE
  2
APPID
  5
552DD
330
0
100
AcDbSymbolTable
 70
     1
  0
APPID
  5
552E5
330
552DD
100
AcDbSymbolTableRecord
100
AcDbRegAppTableRecord
  2
ACAD
 70
     0
  0
ENDTAB
  0
TABLE
  2
DIMSTYLE
  5
552DE
330
0
100
AcDbSymbolTable
 70
     1
  0
DIMSTYLE
105
552F8
330
552DE
100
AcDbSymbolTableRecord
100
AcDbDimStyleTableRecord
  2
STANDARD
 70
     0
  3

  4

  5

  6

  7

 40
1.0
 41
0.125
 42
0.125
 43
0.375
 44
0.125
 45
0.0
 46
0.0
 47
0.0
 48
0.0
140
0.125
141
-0.125
142
0.0
143
25.4
144
1.0
145
0.0
146
1.0
147
0.09
 71
     0
 72
     0
 73
     1
 74
     1
 75
     0
 76
     0
 77
     0
 78
     4
170
     0
171
     2
172
     0
173
     0
174
     1
175
     0
176
     0
177
     0
178
     0
270
     2
271
     3
272
     3
273
     2
274
     2
340
55300
275
     0
280
     0
281
     0
282
     0
283
     1
284
     4
285
     0
286
     0
287
     3
288
     0
  0
ENDTAB
  0
TABLE
  2
BLOCK_RECORD
  5
552D5
330
0
100
AcDbSymbolTable
 70
     0
  0
BLOCK_RECORD
  5
552EC
102
{ACAD_XDICTIONARY
360
55333
102
}
330
552D5
100
AcDbSymbolTableRecord
100
AcDbBlockTableRecord
  2
*MODEL_SPACE
  0
BLOCK_RECORD
  5
552E9
102
{ACAD_XDICTIONARY
360
55331
102
}
330
552D5
100
AcDbSymbolTableRecord
100
AcDbBlockTableRecord
  2
*PAPER_SPACE
  0
ENDTAB
  0
ENDSEC
  0
SECTION
  2
BLOCKS
  0
BLOCK
  5
552F6
330
552EC
100
AcDbEntity
  8
0
100
AcDbBlockBegin
  2
*MODEL_SPACE
 70
     0
 10
0.0
 20
0.0
 30
0.0
  3
*MODEL_SPACE
  1

  0
ENDBLK
  5
552F7
330
552EC
100
AcDbEntity
  8
0
100
AcDbBlockEnd
  0
BLOCK
  5
552F4
330
552E9
100
AcDbEntity
 67
     1
  8
0
100
AcDbBlockBegin
  2
*PAPER_SPACE
 70
     0
 10
0.0
 20
0.0
 30
0.0
  3
*PAPER_SPACE
  1

  0
ENDBLK
  5
552F5
330
552E9
100
AcDbEntity
 67
     1
  8
0
100
AcDbBlockEnd
  0
ENDSEC
  0
SECTION
  2
ENTITIES
  0
LWPOLYLINE
  5
538DB
330
552EC
100
AcDbEntity
  8
0
100
AcDbPolyline
 90
       31
 70
     1
 43
0.0
 10
2.389375
 20
1.9675
 42
-0.4142135623730951
 10
2.358125
 20
1.99875
 10
2.358125
 20
2.127499999999999
 42
-0.4142135623730951
 10
2.368125
 20
2.1375
 10
2.38021212152522
 20
2.1375
 42
0.5230120239993309
 10
2.38668973596765
 20
2.146827086407473
 42
0.6944949536696078
 10
2.269560264032348
 20
2.146827086407473
 42
0.5230120239993288
 10
2.276037878474778
 20
2.1375
 10
2.288124999999999
 20
2.1375
 42
-0.4142135623730951
 10
2.298124999999999
 20
2.127499999999999
 10
2.298124999999999
 20
1.99875
 42
-0.4142135623730951
 10
2.266874999999999
 20
1.9675
 10
2.045624999999999
 20
1.9675
 42
1.0
 10
2.045624999999999
 20
1.907499999999999
 10
3.173124999999999
 20
1.907499999999999
 42
1.0
 10
3.173124999999999
 20
1.9675
 10
2.951875
 20
1.9675
 42
-0.4142135623730951
 10
2.920625
 20
1.99875
 10
2.920625
 20
2.127499999999999
 42
-0.4142135623730951
 10
2.930625
 20
2.1375
 10
2.94271212152522
 20
2.1375
 42
0.5230120239993309
 10
2.94918973596765
 20
2.146827086407473
 42
0.6944949536696078
 10
2.832060264032348
 20
2.146827086407473
 42
0.5230120239993288
 10
2.838537878474778
 20
2.1375
 10
2.850624999999999
 20
2.1375
 42
-0.4142135623730951
 10
2.860624999999999
 20
2.127499999999999
 10
2.860624999999999
 20
1.99875
 42
-0.4142135623730951
 10
2.829374999999999
 20
1.9675
 10
2.619374999999999
 20
1.9675
 10
2.609375
 20
1.957499999999999
 10
2.599375
 20
1.9675
  0
TEXT
  5
55197
330
552EC
100
AcDbEntity
  8
TEXT
100
AcDbText
 10
1.868303571428571
 20
1.645
 30
0.0
 40
0.125
  1
PART #110021
  7
ITALICC
 72
     1
 11
2.609375
 21
1.645
 31
0.0
100
AcDbText
  0
TEXT
  5
55198
330
552EC
100
AcDbEntity
  8
TEXT
100
AcDbText
 10
3.02268015825032
 20
1.198077357327624
 30
0.0
 40
0.0522247191011236
  1
Phone  1-800-328-2495
 41
1.272321428571429
 72
     5
 11
4.351612742519984
 21
1.198077357327624
 31
0.0
100
AcDbText
  0
TEXT
  5
55199
330
552EC
100
AcDbEntity
  8
TEXT
100
AcDbText
 10
3.02268015825032
 20
1.477852638226501
 30
0.0
 40
0.0522247191011236
  1
Stylmark  Incorporated
 41
1.221428571428573
 72
     5
 11
4.351612742519984
 21
1.477852638226501
 31
0.0
100
AcDbText
  0
TEXT
  5
5519A
330
552EC
100
AcDbEntity
  8
TEXT
100
AcDbText
 10
3.02268015825032
 20
1.384594211260209
 30
0.0
 40
0.0522247191011236
  1
6536 Main St. N.E. * P.O. Box 32008
 41
0.8388932496075366
 72
     5
 11
4.351612742519984
 21
1.384594211260209
 31
0.0
100
AcDbText
  0
TEXT
  5
5519B
330
552EC
100
AcDbEntity
  8
TEXT
100
AcDbText
 10
3.02268015825032
 20
1.291335784293917
 30
0.0
 40
0.0522247191011236
  1
Minneapolis, MN 55432-0008
 41
1.11444212721585
 72
     5
 11
4.351612742519984
 21
1.291335784293917
 31
0.0
100
AcDbText
  0
LWPOLYLINE
  5
5519C
330
552EC
100
AcDbEntity
  8
TEXT
100
AcDbPolyline
 90
        3
 70
     0
 43
0.0006660908203125
 10
0.8667264661830129
 20
1.311722119965059
 10
0.8667264661830129
 20
1.198486680511932
 10
0.9799619056361352
 20
1.198486680511932
  0
LWPOLYLINE
  5
551A1
330
552EC
100
AcDbEntity
  8
TEXT
100
AcDbPolyline
 90
        3
 70
     0
 43
0.0006660908203125
 10
0.8933700989955104
 20
1.311722119965059
 10
0.8933700989955104
 20
1.225130313324433
 10
0.9799619056361352
 20
1.225130313324433
  0
LWPOLYLINE
  5
551A6
330
552EC
100
AcDbEntity
  8
TEXT
100
AcDbPolyline
 90
        2
 70
     0
 43
0.0001332181640625
 10
0.9399964564173872
 20
1.321713482269744
 10
0.8667264661830129
 20
1.311722119965059
  0
LWPOLYLINE
  5
551AA
330
552EC
100
AcDbEntity
  8
TEXT
100
AcDbPolyline
 90
        2
 70
     0
 43
0.0001332181640625
 10
0.8933700989955104
 20
1.311722119965059
 10
0.9533182728236377
 20
1.321713482269744
  0
LWPOLYLINE
  5
551AE
330
552EC
100
AcDbEntity
  8
TEXT
100
AcDbPolyline
 90
        2
 70
     0
 43
0.0001332181640625
 10
0.8933700989955104
 20
1.225130313324433
 10
0.9533182728236377
 20
1.285078487152558
  0
LWPOLYLINE
  5
551B2
330
552EC
100
AcDbEntity
  8
TEXT
100
AcDbPolyline
 90
        3
 70
     0
 43
0.0006660908203125
 10
0.9799619056361352
 20
1.464923008636935
 10
0.8667264661830129
 20
1.464923008636935
 10
0.8667264661830129
 20
1.351687569183807
  0
LWPOLYLINE
  5
551B7
330
552EC
100
AcDbEntity
  8
TEXT
100
AcDbPolyline
 90
        3
 70
     0
 43
0.0006660908203125
 10
0.9799619056361352
 20
1.438279375824434
 10
0.8933700989955104
 20
1.438279375824434
 10
0.8933700989955104
 20
1.351687569183807
  0
LWPOLYLINE
  5
551BC
330
552EC
100
AcDbEntity
  8
TEXT
100
AcDbPolyline
 90
        2
 70
     0
 43
0.0001332181640625
 10
0.8933700989955104
 20
1.438279375824434
 10
0.953318272823636
 20
1.378331201996308
  0
LWPOLYLINE
  5
551C0
330
552EC
100
AcDbEntity
  8
TEXT
100
AcDbPolyline
 90
        2
 70
     0
 43
0.0001332181640625
 10
0.8933700989955104
 20
1.351687569183807
 10
0.953318272823636
 20
1.341696206879118
  0
LWPOLYLINE
  5
551C4
330
552EC
100
AcDbEntity
  8
TEXT
100
AcDbPolyline
 90
        2
 70
     0
 43
0.0001332181640625
 10
0.8667264661830129
 20
1.351687569183807
 10
0.9399964564173872
 20
1.341696206879118
  0
LWPOLYLINE
  5
551C8
330
552EC
100
AcDbEntity
  8
TEXT
100
AcDbPolyline
 90
        2
 70
     0
 43
0.0006660908203125
 10
0.8933700989955104
 20
1.311722119965059
 10
0.8667264661830129
 20
1.311722119965059
  0
LWPOLYLINE
  5
551CC
330
552EC
100
AcDbEntity
  8
TEXT
100
AcDbPolyline
 90
        2
 70
     0
 43
0.0006660908203125
 10
0.8933700989955104
 20
1.351687569183807
 10
0.8667264661830129
 20
1.351687569183807
  0
LINE
  5
551D0
330
552EC
100
AcDbEntity
  8
TEXT
100
AcDbLine
 10
2.38191689530951
 20
1.400646313980166
 30
0.0
 11
2.274710621922221
 21
1.400646313980166
 31
0.0
  0
LINE
  5
551D1
330
552EC
100
AcDbEntity
  8
TEXT
100
AcDbLine
 10
2.410947793653988
 20
1.464923008636931
 30
0.0
 11
2.276115884436929
 21
1.464923008636931
 31
0.0
  0
ARC
  5
551D2
330
552EC
100
AcDbEntity
  8
TEXT
100
AcDbCircle
 10
2.335429980830246
 20
1.295685759373915
 30
0.0
 40
0.0676855811441166
100
AcDbArc
 50
90.0
 51
153.7768192527749
  0
LWPOLYLINE
  5
551D3
330
552EC
100
AcDbEntity
  8
TEXT
100
AcDbPolyline
 90
        2
 70
     0
 43
0.0
 10
2.273678126467411
 20
1.241940920598858
 42
0.2901071551932823
 10
2.316754059335046
 20
1.19844997564842
 42
5.328517124445801
  0
ARC
  5
551D7
330
552EC
100
AcDbEntity
  8
TEXT
100
AcDbCircle
 10
1.63029860315876
 20
1.25824236698647
 30
0.0
 40
0.0601160179737537
100
AcDbArc
 50
180.0000000000003
 51
264.0521544866073
  0
LINE
  5
551D8
330
552EC
100
AcDbEntity
  8
TEXT
100
AcDbLine
 10
1.633813958784308
 20
1.499310926231069
 30
0.0
 11
1.573771353940301
 21
1.499310926231069
 31
0.0
  0
ARC
  5
551D9
330
552EC
100
AcDbEntity
  8
TEXT
100
AcDbCircle
 10
1.39803960104179
 20
1.38283554919043
 30
0.0
 40
0.0820874594465043
100
AcDbArc
 50
90.0
 51
270.0
  0
LWPOLYLINE
  5
551DA
330
552EC
100
AcDbEntity
  8
TEXT
100
AcDbPolyline
 90
        2
 70
     0
 43
0.0001332181640625
 10
0.9899532679408258
 20
1.391653018402555
 10
0.9799619056361352
 20
1.464923008636935
  0
LWPOLYLINE
  5
551DE
330
552EC
100
AcDbEntity
  8
TEXT
100
AcDbPolyline
 90
        2
 70
     0
 43
0.0001332181640625
 10
0.9799619056361352
 20
1.438279375824434
 10
0.9899532679408258
 20
1.378331201996308
  0
LWPOLYLINE
  5
551E2
330
552EC
100
AcDbEntity
  8
TEXT
100
AcDbPolyline
 90
        3
 70
     0
 43
0.0006660908203125
 10
1.133162794308012
 20
1.351687569183807
 10
1.133162794308012
 20
1.464923008636935
 10
1.019927354854886
 20
1.464923008636935
  0
LWPOLYLINE
  5
551E7
330
552EC
100
AcDbEntity
  8
TEXT
100
AcDbPolyline
 90
        3
 70
     0
 43
0.0006660908203125
 10
1.106519161495511
 20
1.351687569183807
 10
1.106519161495511
 20
1.438279375824434
 10
1.019927354854886
 20
1.438279375824434
  0
LWPOLYLINE
  5
551EC
330
552EC
100
AcDbEntity
  8
TEXT
100
AcDbPolyline
 90
        2
 70
     0
 43
0.0001332181640625
 10
1.106519161495511
 20
1.438279375824434
 10
1.046570987667387
 20
1.378331201996308
  0
LWPOLYLINE
  5
551F0
330
552EC
100
AcDbEntity
  8
TEXT
100
AcDbPolyline
 90
        2
 70
     0
 43
0.0001332181640625
 10
1.019927354854886
 20
1.438279375824434
 10
1.009935992550198
 20
1.378331201996308
  0
LWPOLYLINE
  5
551F4
330
552EC
100
AcDbEntity
  8
TEXT
100
AcDbPolyline
 90
        2
 70
     0
 43
0.0001332181640625
 10
1.019927354854886
 20
1.464923008636935
 10
1.009935992550198
 20
1.391653018402555
  0
LWPOLYLINE
  5
551F8
330
552EC
100
AcDbEntity
  8
TEXT
100
AcDbPolyline
 90
        2
 70
     0
 43
0.0001332181640625
 10
1.059892804073636
 20
1.341696206879118
 10
1.133162794308012
 20
1.351687569183807
  0
LWPOLYLINE
  5
551FC
330
552EC
100
AcDbEntity
  8
TEXT
100
AcDbPolyline
 90
        2
 70
     0
 43
0.0001332181640625
 10
1.106519161495511
 20
1.351687569183807
 10
1.046570987667387
 20
1.341696206879118
  0
LWPOLYLINE
  5
55200
330
552EC
100
AcDbEntity
  8
TEXT
100
AcDbPolyline
 90
        2
 70
     0
 43
0.0001332181640625
 10
1.133162794308012
 20
1.311722119965059
 10
1.059892804073636
 20
1.321713482269744
  0
LWPOLYLINE
  5
55204
330
552EC
100
AcDbEntity
  8
TEXT
100
AcDbPolyline
 90
        2
 70
     0
 43
0.0001332181640625
 10
1.106519161495511
 20
1.311722119965059
 10
1.046570987667387
 20
1.321713482269744
  0
LWPOLYLINE
  5
55208
330
552EC
100
AcDbEntity
  8
TEXT
100
AcDbPolyline
 90
        2
 70
     0
 43
0.0001332181640625
 10
1.106519161495511
 20
1.225130313324433
 10
1.046570987667387
 20
1.285078487152558
  0
LWPOLYLINE
  5
5520C
330
552EC
100
AcDbEntity
  8
TEXT
100
AcDbPolyline
 90
        3
 70
     0
 43
0.0006660908203125
 10
1.019927354854886
 20
1.225130313324433
 10
1.106519161495511
 20
1.225130313324433
 10
1.106519161495511
 20
1.311722119965059
  0
LWPOLYLINE
  5
55211
330
552EC
100
AcDbEntity
  8
TEXT
100
AcDbPolyline
 90
        3
 70
     0
 43
0.0006660908203125
 10
1.019927354854886
 20
1.198486680511932
 10
1.133162794308012
 20
1.198486680511932
 10
1.133162794308012
 20
1.311722119965059
  0
LWPOLYLINE
  5
55216
330
552EC
100
AcDbEntity
  8
TEXT
100
AcDbPolyline
 90
        5
 70
     0
 43
0.0001332181640625
 10
0.9899532679408258
 20
1.271756670746308
 10
0.9899532679408258
 20
1.285078487152558
 10
0.9533182728236377
 20
1.285078487152558
 10
0.9533182728236377
 20
1.321713482269744
 10
0.9399964564173872
 20
1.321713482269744
  0
LWPOLYLINE
  5
5521D
330
552EC
100
AcDbEntity
  8
TEXT
100
AcDbPolyline
 90
        2
 70
     0
 43
0.0006660908203125
 10
0.9799619056361352
 20
1.225130313324433
 10
0.9799619056361352
 20
1.198486680511932
  0
LWPOLYLINE
  5
55221
330
552EC
100
AcDbEntity
  8
TEXT
100
AcDbPolyline
 90
        2
 70
     0
 43
0.0001332181640625
 10
0.9799619056361352
 20
1.225130313324433
 10
0.9899532679408258
 20
1.285078487152558
  0
LWPOLYLINE
  5
55225
330
552EC
100
AcDbEntity
  8
TEXT
100
AcDbPolyline
 90
        2
 70
     0
 43
0.0001332181640625
 10
0.9799619056361352
 20
1.198486680511932
 10
0.9899532679408258
 20
1.271756670746308
  0
LWPOLYLINE
  5
55229
330
552EC
100
AcDbEntity
  8
TEXT
100
AcDbPolyline
 90
        5
 70
     0
 43
0.0001332181640625
 10
0.9399964564173872
 20
1.341696206879118
 10
0.953318272823636
 20
1.341696206879118
 10
0.953318272823636
 20
1.378331201996308
 10
0.9899532679408258
 20
1.378331201996308
 10
0.9899532679408258
 20
1.391653018402555
  0
LWPOLYLINE
  5
55230
330
552EC
100
AcDbEntity
  8
TEXT
100
AcDbPolyline
 90
        5
 70
     0
 43
0.0001332181640625
 10
1.009935992550198
 20
1.391653018402555
 10
1.009935992550198
 20
1.378331201996308
 10
1.046570987667387
 20
1.378331201996308
 10
1.046570987667387
 20
1.341696206879118
 10
1.059892804073636
 20
1.341696206879118
  0
LWPOLYLINE
  5
55237
330
552EC
100
AcDbEntity
  8
TEXT
100
AcDbPolyline
 90
        2
 70
     0
 43
0.0001332181640625
 10
1.019927354854886
 20
1.225130313324433
 10
1.009935992550198
 20
1.285078487152558
  0
LWPOLYLINE
  5
5523B
330
552EC
100
AcDbEntity
  8
TEXT
100
AcDbPolyline
 90
        2
 70
     0
 43
0.0001332181640625
 10
1.009935992550198
 20
1.271756670746308
 10
1.019927354854886
 20
1.198486680511932
  0
LWPOLYLINE
  5
5523F
330
552EC
100
AcDbEntity
  8
TEXT
100
AcDbPolyline
 90
        2
 70
     0
 43
0.0006660908203125
 10
1.019927354854886
 20
1.225130313324433
 10
1.019927354854886
 20
1.198486680511932
  0
LWPOLYLINE
  5
55243
330
552EC
100
AcDbEntity
  8
TEXT
100
AcDbPolyline
 90
        5
 70
     0
 43
0.0001332181640625
 10
1.059892804073636
 20
1.321713482269744
 10
1.046570987667387
 20
1.321713482269744
 10
1.046570987667387
 20
1.285078487152558
 10
1.009935992550198
 20
1.285078487152558
 10
1.009935992550198
 20
1.271756670746308
  0
LWPOLYLINE
  5
5524A
330
552EC
100
AcDbEntity
  8
TEXT
100
AcDbPolyline
 90
        2
 70
     0
 43
0.0006660908203125
 10
1.106519161495511
 20
1.351687569183807
 10
1.133162794308012
 20
1.351687569183807
  0
LWPOLYLINE
  5
5524E
330
552EC
100
AcDbEntity
  8
TEXT
100
AcDbPolyline
 90
        2
 70
     0
 43
0.0006660908203125
 10
1.106519161495511
 20
1.311722119965059
 10
1.133162794308012
 20
1.311722119965059
  0
LINE
  5
55252
330
552EC
100
AcDbEntity
  8
TEXT
100
AcDbLine
 10
1.403276931156037
 20
1.400646313980166
 30
0.0
 11
1.570182585185008
 21
1.400646313980166
 31
0.0
  0
LINE
  5
55253
330
552EC
100
AcDbEntity
  8
TEXT
100
AcDbLine
 10
1.468877067400338
 20
1.364841592369538
 30
0.0
 11
1.403276931156037
 21
1.364841592369538
 31
0.0
  0
LINE
  5
55254
330
552EC
100
AcDbEntity
  8
TEXT
100
AcDbLine
 10
1.315952141595285
 20
1.19844997564842
 30
0.0
 11
1.468877067400338
 21
1.19844997564842
 31
0.0
  0
LINE
  5
55255
330
552EC
100
AcDbEntity
  8
TEXT
100
AcDbLine
 10
1.473817441306618
 20
1.26680698198186
 30
0.0
 11
1.315952141595284
 21
1.26680698198186
 31
0.0
  0
LINE
  5
55256
330
552EC
100
AcDbEntity
  8
TEXT
100
AcDbLine
 10
1.398039601041789
 20
1.300748089743924
 30
0.0
 11
1.473817441306618
 21
1.300748089743924
 31
0.0
  0
ARC
  5
55257
330
552EC
100
AcDbEntity
  8
TEXT
100
AcDbCircle
 10
1.403276931156038
 20
1.382743953174854
 30
0.0
 40
0.017902360805315
100
AcDbArc
 50
90.0
 51
270.0
  0
LINE
  5
55258
330
552EC
100
AcDbEntity
  8
TEXT
100
AcDbLine
 10
1.315952141595284
 20
1.26680698198186
 30
0.0
 11
1.315952141595285
 21
1.19844997564842
 31
0.0
  0
LINE
  5
55259
330
552EC
100
AcDbEntity
  8
TEXT
100
AcDbLine
 10
1.570182585185008
 20
1.400646313980166
 30
0.0
 11
1.570182585185008
 21
1.25824236698647
 31
0.0
  0
ARC
  5
5525A
330
552EC
100
AcDbEntity
  8
TEXT
100
AcDbCircle
 10
1.468877067400339
 20
1.281645784008977
 30
0.0
 40
0.0831958083605586
100
AcDbArc
 50
270.0
 51
90.0
  0
ARC
  5
5525B
330
552EC
100
AcDbEntity
  8
TEXT
100
AcDbCircle
 10
1.473817441306619
 20
1.283777535862894
 30
0.0
 40
0.0169705538810321
100
AcDbArc
 50
270.0
 51
90.0
  0
LWPOLYLINE
  5
5525C
330
552EC
100
AcDbEntity
  8
TEXT
100
AcDbPolyline
 90
        2
 70
     0
 43
0.0006660908203125
 10
0.9799619056361352
 20
1.438279375824434
 10
0.9799619056361352
 20
1.464923008636935
  0
LWPOLYLINE
  5
55260
330
552EC
100
AcDbEntity
  8
TEXT
100
AcDbPolyline
 90
        2
 70
     0
 43
0.0006660908203125
 10
1.019927354854886
 20
1.438279375824434
 10
1.019927354854886
 20
1.464923008636935
  0
LINE
  5
55264
330
552EC
100
AcDbEntity
  8
TEXT
100
AcDbLine
 10
1.573771353940301
 20
1.464923008636931
 30
0.0
 11
1.398039601041789
 21
1.464923008636931
 31
0.0
  0
LINE
  5
55265
330
552EC
100
AcDbEntity
  8
TEXT
100
AcDbLine
 10
1.573771353940301
 20
1.499310926231069
 30
0.0
 11
1.573771353940301
 21
1.464923008636931
 31
0.0
  0
LINE
  5
55266
330
552EC
100
AcDbEntity
  8
TEXT
100
AcDbLine
 10
1.764243245960154
 20
1.364051012523811
 30
0.0
 11
1.705612924928216
 21
1.464923008636931
 31
0.0
  0
LINE
  5
55267
330
552EC
100
AcDbEntity
  8
TEXT
100
AcDbLine
 10
1.822991808766019
 20
1.464923008636931
 30
0.0
 11
1.764243245960154
 21
1.364051012523811
 31
0.0
  0
LINE
  5
55268
330
552EC
100
AcDbEntity
  8
TEXT
100
AcDbLine
 10
1.91992243412576
 20
1.28083781375142
 30
0.0
 11
1.91992243412576
 21
1.532934486375742
 31
0.0
  0
LINE
  5
55269
330
552EC
100
AcDbEntity
  8
TEXT
100
AcDbLine
 10
1.95223428826342
 20
1.464923008636931
 30
0.0
 11
1.95223428826342
 21
1.264058801904523
 31
0.0
  0
LINE
  5
5526A
330
552EC
100
AcDbEntity
  8
TEXT
100
AcDbLine
 10
1.95223428826342
 20
1.264058801904523
 30
0.0
 11
1.935240651378819
 21
1.264058801904523
 31
0.0
  0
LINE
  5
5526B
330
552EC
100
AcDbEntity
  8
TEXT
100
AcDbLine
 10
1.921062007621955
 20
1.19844997564842
 30
0.0
 11
2.01906534132139
 21
1.19844997564842
 31
0.0
  0
LINE
  5
5526C
330
552EC
100
AcDbEntity
  8
TEXT
100
AcDbLine
 10
1.754643008963199
 20
1.218408481753433
 30
0.0
 11
1.851942715056644
 21
1.382758692688701
 31
0.0
  0
ARC
  5
5526D
330
552EC
100
AcDbEntity
  8
TEXT
100
AcDbCircle
 10
1.720599449050985
 20
1.237997697922116
 30
0.0
 40
0.0392772371940762
100
AcDbArc
 50
270.1604552698595
 51
330.0831797321295
  0
LINE
  5
5526E
330
552EC
100
AcDbEntity
  8
TEXT
100
AcDbLine
 10
1.624069192665114
 20
1.19844997564842
 30
0.0
 11
1.720709443740108
 21
1.198720614746703
 31
0.0
  0
LWPOLYLINE
  5
5526F
330
552EC
100
AcDbEntity
  8
TEXT
100
AcDbPolyline
 90
        6
 70
     1
 43
0.0
 10
1.666592996240264
 20
1.400646313980166
 10
1.636276402020055
 20
1.400646313980166
 10
1.636276402020055
 20
1.277535315925272
 42
0.407328721240804
 10
1.647820053181532
 20
1.265716401248885
 10
1.708441752226263
 20
1.265716401248885
 10
1.725907092633581
 20
1.298528630292365
  0
LINE
  5
55277
330
552EC
100
AcDbEntity
  8
TEXT
100
AcDbLine
 10
1.851942715056644
 20
1.382758692688701
 30
0.0
 11
1.851942715056644
 21
1.250001317863345
 31
0.0
  0
ARC
  5
55278
330
552EC
100
AcDbEntity
  8
TEXT
100
AcDbCircle
 10
1.935240651378817
 20
1.279440608147949
 30
0.0
 40
0.0153818062434269
100
AcDbArc
 50
174.7883570302258
 51
270.0
  0
LWPOLYLINE
  5
55279
330
552EC
100
AcDbEntity
  8
TEXT
100
AcDbPolyline
 90
        2
 70
     0
 43
0.0
 10
1.851942715056642
 20
1.250001317863349
 42
0.3318488747599744
 10
1.921062007621955
 20
1.19844997564842
 42
-6.868794160588311
  0
LINE
  5
5527D
330
552EC
100
AcDbEntity
  8
TEXT
100
AcDbLine
 10
2.076454410310651
 20
1.19844997564842
 30
0.0
 11
2.143512457092491
 21
1.19844997564842
 31
0.0
  0
LINE
  5
5527E
330
552EC
100
AcDbEntity
  8
TEXT
100
AcDbLine
 10
2.076454410310651
 20
1.393092524814056
 30
0.0
 11
2.076454410310651
 21
1.19844997564842
 31
0.0
  0
LINE
  5
5527F
330
552EC
100
AcDbEntity
  8
TEXT
100
AcDbLine
 10
2.01906534132139
 20
1.400646313980166
 30
0.0
 11
2.068900621144537
 21
1.400646313980166
 31
0.0
  0
LINE
  5
55280
330
552EC
100
AcDbEntity
  8
TEXT
100
AcDbLine
 10
2.01906534132139
 20
1.19844997564842
 30
0.0
 11
2.01906534132139
 21
1.400646313980166
 31
0.0
  0
LWPOLYLINE
  5
55281
330
552EC
100
AcDbEntity
  8
TEXT
100
AcDbPolyline
 90
        2
 70
     0
 43
0.0
 10
2.068900621144535
 20
1.400646313980166
 42
-0.4142135623731017
 10
2.076454410310649
 20
1.393092524814056
 42
-0.9999999999999998
  0
LINE
  5
55285
330
552EC
100
AcDbEntity
  8
TEXT
100
AcDbLine
 10
2.274710621922221
 20
1.400646313980166
 30
0.0
 11
2.274710621922221
 21
1.325593907905959
 31
0.0
  0
LINE
  5
55286
330
552EC
100
AcDbEntity
  8
TEXT
100
AcDbLine
 10
2.143512457092491
 20
1.400646313980166
 30
0.0
 11
2.197646054013441
 21
1.400646313980166
 31
0.0
  0
LINE
  5
55287
330
552EC
100
AcDbEntity
  8
TEXT
100
AcDbLine
 10
2.143512457092491
 20
1.19844997564842
 30
0.0
 11
2.143512457092491
 21
1.400646313980166
 31
0.0
  0
LWPOLYLINE
  5
55288
330
552EC
100
AcDbEntity
  8
TEXT
100
AcDbPolyline
 90
        2
 70
     0
 43
0.0
 10
2.197646054013439
 20
1.400646313980166
 42
-0.4142135623731017
 10
2.205199843179553
 20
1.393092524814056
 42
-0.9999999999999998
  0
LWPOLYLINE
  5
5528C
330
552EC
100
AcDbEntity
  8
TEXT
100
AcDbPolyline
 90
        4
 70
     0
 43
0.0
 10
2.205199843179553
 20
1.393092524814056
 10
2.205199843179553
 20
1.19844997564842
 10
2.273678126467411
 20
1.19844997564842
 10
2.273678126467411
 20
1.241940920598858
 42
-1.714843617202739
  0
LINE
  5
55292
330
552EC
100
AcDbEntity
  8
TEXT
100
AcDbLine
 10
1.633813958784308
 20
1.464923008636931
 30
0.0
 11
1.633813958784308
 21
1.499310926231069
 31
0.0
  0
LINE
  5
55293
330
552EC
100
AcDbEntity
  8
TEXT
100
AcDbLine
 10
1.705612924928216
 20
1.464923008636931
 30
0.0
 11
1.633813958784308
 21
1.464923008636931
 31
0.0
  0
LINE
  5
55294
330
552EC
100
AcDbEntity
  8
TEXT
100
AcDbLine
 10
1.853113721559395
 20
1.464923008636931
 30
0.0
 11
1.822991808766019
 21
1.464923008636931
 31
0.0
  0
LINE
  5
55295
330
552EC
100
AcDbEntity
  8
TEXT
100
AcDbLine
 10
1.853113721559395
 20
1.532934486375742
 30
0.0
 11
1.853113721559395
 21
1.464923008636931
 31
0.0
  0
LINE
  5
55296
330
552EC
100
AcDbEntity
  8
TEXT
100
AcDbLine
 10
1.91992243412576
 20
1.532934486375742
 30
0.0
 11
1.853113721559395
 21
1.532934486375742
 31
0.0
  0
LWPOLYLINE
  5
55297
330
552EC
100
AcDbEntity
  8
TEXT
100
AcDbPolyline
 90
        3
 70
     0
 43
0.0
 10
2.240334193723763
 20
1.464923008636935
 10
2.122034034907718
 20
1.464923008636935
 10
2.122034034907718
 20
1.437755511876039
 42
-1.960274751411753
  0
LINE
  5
5529C
330
552EC
100
AcDbEntity
  8
TEXT
100
AcDbLine
 10
2.086252344194557
 20
1.464923008636931
 30
0.0
 11
1.95223428826342
 21
1.464923008636931
 31
0.0
  0
LWPOLYLINE
  5
5529D
330
552EC
100
AcDbEntity
  8
TEXT
100
AcDbPolyline
 90
        2
 70
     0
 43
0.0
 10
2.086252344194557
 20
1.464923008636935
 42
-0.3328679258950098
 10
2.122034034907718
 20
1.437755511876039
 42
6.772930709997214
  0
LINE
  5
552A1
330
552EC
100
AcDbEntity
  8
TEXT
100
AcDbLine
 10
2.276115884436929
 20
1.464923008636931
 30
0.0
 11
2.276115884436929
 21
1.436600462867287
 31
0.0
  0
LWPOLYLINE
  5
552A2
330
552EC
100
AcDbEntity
  8
TEXT
100
AcDbPolyline
 90
        2
 70
     0
 43
0.0
 10
2.240334193723763
 20
1.464923008636935
 42
-0.3277054968067132
 10
2.276115884436928
 20
1.436600462867291
 42
6.667889725900311
  0
LINE
  5
552A6
330
552EC
100
AcDbEntity
  8
TEXT
100
AcDbLine
 10
2.489907732529029
 20
1.359711030083504
 30
0.0
 11
2.446156961347128
 21
1.441961306079649
 31
0.0
  0
LINE
  5
552A7
330
552EC
100
AcDbEntity
  8
TEXT
100
AcDbLine
 10
2.489907732529029
 20
1.464923008636931
 30
0.0
 11
2.489907732529029
 21
1.359711030083504
 31
0.0
  0
LINE
  5
552A8
330
552EC
100
AcDbEntity
  8
TEXT
100
AcDbLine
 10
2.717591471467398
 20
1.389057682225393
 30
0.0
 11
2.717591471467398
 21
1.530387214404532
 31
0.0
  0
LINE
  5
552A9
330
552EC
100
AcDbEntity
  8
TEXT
100
AcDbLine
 10
2.764689630023383
 20
1.464923008636931
 30
0.0
 11
2.717591471467398
 21
1.389057682225393
 31
0.0
  0
LINE
  5
552AA
330
552EC
100
AcDbEntity
  8
TEXT
100
AcDbLine
 10
2.775124346787306
 20
1.355029765695958
 30
0.0
 11
2.839681462753011
 21
1.464923008636931
 31
0.0
  0
LINE
  5
552AB
330
552EC
100
AcDbEntity
  8
TEXT
100
AcDbLine
 10
2.653756480244625
 20
1.19844997564842
 30
0.0
 11
2.718134664563246
 21
1.19844997564842
 31
0.0
  0
LWPOLYLINE
  5
552AC
330
552EC
100
AcDbEntity
  8
TEXT
100
AcDbPolyline
 90
        2
 70
     0
 43
0.0
 10
2.493847409834067
 20
1.241940920598858
 42
-0.2901071551932486
 10
2.450771476966423
 20
1.19844997564842
 42
-5.328517124445184
  0
ARC
  5
552B0
330
552EC
100
AcDbEntity
  8
TEXT
100
AcDbCircle
 10
2.381916895309508
 20
1.372286938980169
 30
0.0
 40
0.028359375
100
AcDbArc
 50
25.78218179591245
 51
90.0
  0
LINE
  5
552B1
330
552EC
100
AcDbEntity
  8
TEXT
100
AcDbLine
 10
2.417717970613631
 20
1.363371340518034
 30
0.0
 11
2.407453210200067
 21
1.384621880090728
 31
0.0
  0
LINE
  5
552B2
330
552EC
100
AcDbEntity
  8
TEXT
100
AcDbLine
 10
2.335429980830248
 20
1.363371340518034
 30
0.0
 11
2.417717970613631
 21
1.363371340518034
 31
0.0
  0
LWPOLYLINE
  5
552B3
330
552EC
100
AcDbEntity
  8
TEXT
100
AcDbPolyline
 90
        4
 70
     1
 43
0.0
 10
2.43064901189653
 20
1.301413953632446
 10
2.341988693236672
 20
1.301413953632446
 42
0.9999999999999998
 10
2.341988693236672
 20
1.259015413128585
 10
2.43064901189653
 20
1.259015413128585
 42
1.0
  0
LWPOLYLINE
  5
552B9
330
552EC
100
AcDbEntity
  8
TEXT
100
AcDbPolyline
 90
        2
 70
     0
 43
0.0
 10
2.316754059335046
 20
1.19844997564842
 10
2.450771476966423
 20
1.19844997564842
 42
0.9999999999999998
  0
LINE
  5
552BD
330
552EC
100
AcDbEntity
  8
TEXT
100
AcDbLine
 10
2.577108498952062
 20
1.400646313980166
 30
0.0
 11
2.65375648024462
 21
1.400646313980166
 31
0.0
  0
LINE
  5
552BE
330
552EC
100
AcDbEntity
  8
TEXT
100
AcDbLine
 10
2.65375648024462
 20
1.400646313980166
 30
0.0
 11
2.653756480244625
 21
1.19844997564842
 31
0.0
  0
ARC
  5
552BF
330
552EC
100
AcDbEntity
  8
TEXT
100
AcDbCircle
 10
2.57710849895206
 20
1.375740438697503
 30
0.0
 40
0.0249058752826653
100
AcDbArc
 50
89.99971217465335
 51
179.9999999999985
  0
LINE
  5
552C0
330
552EC
100
AcDbEntity
  8
TEXT
100
AcDbLine
 10
2.552202623669403
 20
1.19844997564842
 30
0.0
 11
2.552202623669398
 21
1.375740481079889
 31
0.0
  0
LWPOLYLINE
  5
552C1
330
552EC
100
AcDbEntity
  8
TEXT
100
AcDbPolyline
 90
        2
 70
     0
 43
0.0
 10
2.493847409834067
 20
1.19844997564842
 10
2.552202623669401
 20
1.19844997564842
  0
LWPOLYLINE
  5
552C5
330
552EC
100
AcDbEntity
  8
TEXT
100
AcDbPolyline
 90
        2
 70
     0
 43
0.0
 10
2.493847409834067
 20
1.241940920598858
 10
2.493847409834067
 20
1.19844997564842
  0
LINE
  5
552C9
330
552EC
100
AcDbEntity
  8
TEXT
100
AcDbLine
 10
2.870616570150916
 20
1.19844997564842
 30
0.0
 11
2.775124346787306
 21
1.355029765695958
 31
0.0
  0
LINE
  5
552CA
330
552EC
100
AcDbEntity
  8
TEXT
100
AcDbLine
 10
2.79403819777471
 20
1.19844997564842
 30
0.0
 11
2.870616570150916
 21
1.19844997564842
 31
0.0
  0
LINE
  5
552CB
330
552EC
100
AcDbEntity
  8
TEXT
100
AcDbLine
 10
2.718134664563246
 20
1.330029544124601
 30
0.0
 11
2.79403819777471
 21
1.19844997564842
 31
0.0
  0
LINE
  5
552CC
330
552EC
100
AcDbEntity
  8
TEXT
100
AcDbLine
 10
2.718134664563246
 20
1.19844997564842
 30
0.0
 11
2.718134664563246
 21
1.330029544124601
 31
0.0
  0
LINE
  5
552CD
330
552EC
100
AcDbEntity
  8
TEXT
100
AcDbLine
 10
2.717591471467398
 20
1.530387214404532
 30
0.0
 11
2.649276592918125
 21
1.530387214404532
 31
0.0
  0
ARC
  5
552CE
330
552EC
100
AcDbEntity
  8
TEXT
100
AcDbCircle
 10
2.408920853876919
 20
1.423339441516029
 30
0.0
 40
0.0416329381542859
100
AcDbArc
 50
26.56974201007528
 51
87.20939649401342
  0
LINE
  5
552CF
330
552EC
100
AcDbEntity
  8
TEXT
100
AcDbLine
 10
2.55380463882853
 20
1.464923008636931
 30
0.0
 11
2.489907732529029
 21
1.464923008636931
 31
0.0
  0
LINE
  5
552D0
330
552EC
100
AcDbEntity
  8
TEXT
100
AcDbLine
 10
2.55380463882853
 20
1.437375358776057
 30
0.0
 11
2.55380463882853
 21
1.464923008636931
 31
0.0
  0
ARC
  5
552D1
330
552EC
100
AcDbEntity
  8
TEXT
100
AcDbCircle
 10
2.584997455891638
 20
1.433677281354666
 30
0.0
 40
0.0314112657011332
100
AcDbArc
 50
95.88484768694724
 51
173.2388340632136
  0
LINE
  5
552D2
330
552EC
100
AcDbEntity
  8
TEXT
100
AcDbLine
 10
2.64927659291812
 20
1.464923008636931
 30
0.0
 11
2.581776875268603
 21
1.464923008636931
 31
0.0
  0
LINE
  5
552D3
330
552EC
100
AcDbEntity
  8
TEXT
100
AcDbLine
 10
2.649276592918125
 20
1.530387214404532
 30
0.0
 11
2.64927659291812
 21
1.464923008636931
 31
0.0
  0
LINE
  5
552D4
330
552EC
100
AcDbEntity
  8
TEXT
100
AcDbLine
 10
2.839681462753011
 20
1.464923008636931
 30
0.0
 11
2.764689630023385
 21
1.464923008636931
 31
0.0
  0
ENDSEC
  0
SECTION
  2
OBJECTS
  0
DICTIONARY
  5
552E0
330
0
100
AcDbDictionary
  3
ACAD_GROUP
350
552E1
  3
ACAD_LAYOUT
350
55306
  3
ACAD_MLINESTYLE
350
552E2
  3
ACAD_PLOTSETTINGS
350
55307
  3
ACAD_PLOTSTYLENAME
350
55304
  3
ACDBHEADERROUNDTRIPXREC
350
55311
  3
ACDBVARIABLEDICTIONARY
350
5530E
  0
DICTIONARY
  5
55333
330
552EC
100
AcDbDictionary
280
     1
  3
ACAD_LAYOUTSELFREF
360
55334
  0
DICTIONARY
  5
55331
330
552E9
100
AcDbDictionary
280
     1
  3
ACAD_LAYOUTSELFREF
360
55332
  0
DICTIONARY
  5
552E1
102
{ACAD_REACTORS
330
552E0
102
}
330
552E0
100
AcDbDictionary
  0
DICTIONARY
  5
55306
102
{ACAD_REACTORS
330
552E0
102
}
330
552E0
100
AcDbDictionary
  0
DICTIONARY
  5
552E2
102
{ACAD_REACTORS
330
552E0
102
}
330
552E0
100
AcDbDictionary
  3
STANDARD
350
552EF
  0
DICTIONARY
  5
55307
102
{ACAD_REACTORS
330
552E0
102
}
330
552E0
100
AcDbDictionary
  0
ACDBDICTIONARYWDFLT
  5
55304
102
{ACAD_REACTORS
330
552E0
102
}
330
552E0
100
AcDbDictionary
281
     1
  3
Normal
350
55305
100
AcDbDictionaryWithDefault
340
55305
  0
DICTIONARY
  5
55311
102
{ACAD_REACTORS
330
552E0
102
}
330
552E0
100
AcDbDictionary
  3
CEPSNTYPE
350
5531B
  3
FINGERPRINTGUID
350
5531C
  3
HYPERLINKBASE
350
55314
  3
INSUNITS
350
5531A
  3
LAYOUTDICT
350
55316
  3
LWETCUNION
350
55319
  3
PLOTSETDICT
350
55317
  3
PLOTSTYLNAMDICT
350
55318
  3
PSVPSCALE
350
5531E
  3
PUCSBASE
350
55321
  3
PUCSORGBACK
350
55327
  3
PUCSORGBOTTOM
350
55323
  3
PUCSORGFRONT
350
55326
  3
PUCSORGLEFT
350
55324
  3
PUCSORGRIGHT
350
55325
  3
PUCSORGTOP
350
55322
  3
PUCSORTHOREF
350
5531F
  3
PUCSORTHOVIEW
350
55320
  3
STYLESHEET
350
55315
  3
TSTACKALIGN
350
55312
  3
TSTACKSIZE
350
55313
  3
UCSBASE
350
5532A
  3
UCSORGBACK
350
55330
  3
UCSORGBOTTOM
350
5532C
  3
UCSORGFRONT
350
5532F
  3
UCSORGLEFT
350
5532D
  3
UCSORGRIGHT
350
5532E
  3
UCSORGTOP
350
5532B
  3
UCSORTHOREF
350
55328
  3
UCSORTHOVIEW
350
55329
  3
VERSIONGUID
350
5531D
  0
DICTIONARY
  5
5530E
102
{ACAD_REACTORS
330
552E0
102
}
330
552E0
100
AcDbDictionary
  3
DIMASSOC
350
5530F
  0
XRECORD
  5
55334
102
{ACAD_REACTORS
330
55333
102
}
330
55333
100
AcDbXrecord
340
552EC
  0
XRECORD
  5
55332
102
{ACAD_REACTORS
330
55331
102
}
330
55331
100
AcDbXrecord
340
552E9
  0
MLINESTYLE
  5
552EF
102
{ACAD_REACTORS
330
552E2
102
}
330
552E2
100
AcDbMlineStyle
  2
STANDARD
 70
     0
  3

 62
     0
 51
90.0
 52
90.0
 71
     2
 49
0.5
 62
   256
  6
BYLAYER
 49
-0.5
 62
   256
  6
BYLAYER
  0
ACDBPLACEHOLDER
  5
55305
102
{ACAD_REACTORS
330
55304
102
}
330
55304
100
AcDbPlaceHolder
280
     0
  0
XRECORD
  5
5531B
102
{ACAD_REACTORS
330
55311
102
}
330
55311
100
AcDbXrecord
 90
        0
  0
XRECORD
  5
5531C
102
{ACAD_REACTORS
330
55311
102
}
330
55311
100
AcDbXrecord
  1
{5CF6C930-8DB3-11D6-88E6-0090279574E7}
  0
XRECORD
  5
55314
102
{ACAD_REACTORS
330
55311
102
}
330
55311
100
AcDbXrecord
  1

  0
XRECORD
  5
5531A
102
{ACAD_REACTORS
330
55311
102
}
330
55311
100
AcDbXrecord
 90
        0
  0
XRECORD
  5
55316
102
{ACAD_REACTORS
330
55311
102
}
330
55311
100
AcDbXrecord
340
55306
  0
XRECORD
  5
55319
102
{ACAD_REACTORS
330
55311
102
}
330
55311
100
AcDbXrecord
 90
    14877
  0
XRECORD
  5
55317
102
{ACAD_REACTORS
330
55311
102
}
330
55311
100
AcDbXrecord
340
55307
  0
XRECORD
  5
55318
102
{ACAD_REACTORS
330
55311
102
}
330
55311
100
AcDbXrecord
340
55304
  0
XRECORD
  5
5531E
102
{ACAD_REACTORS
330
55311
102
}
330
55311
100
AcDbXrecord
 40
0.0
  0
XRECORD
  5
55321
102
{ACAD_REACTORS
330
55311
102
}
330
55311
100
AcDbXrecord
340
0
  0
XRECORD
  5
55327
102
{ACAD_REACTORS
330
55311
102
}
330
55311
100
AcDbXrecord
 10
0.0
 20
0.0
 30
0.0
  0
XRECORD
  5
55323
102
{ACAD_REACTORS
330
55311
102
}
330
55311
100
AcDbXrecord
 10
0.0
 20
0.0
 30
0.0
  0
XRECORD
  5
55326
102
{ACAD_REACTORS
330
55311
102
}
330
55311
100
AcDbXrecord
 10
0.0
 20
0.0
 30
0.0
  0
XRECORD
  5
55324
102
{ACAD_REACTORS
330
55311
102
}
330
55311
100
AcDbXrecord
 10
0.0
 20
0.0
 30
0.0
  0
XRECORD
  5
55325
102
{ACAD_REACTORS
330
55311
102
}
330
55311
100
AcDbXrecord
 10
0.0
 20
0.0
 30
0.0
  0
XRECORD
  5
55322
102
{ACAD_REACTORS
330
55311
102
}
330
55311
100
AcDbXrecord
 10
0.0
 20
0.0
 30
0.0
  0
XRECORD
  5
5531F
102
{ACAD_REACTORS
330
55311
102
}
330
55311
100
AcDbXrecord
340
0
  0
XRECORD
  5
55320
102
{ACAD_REACTORS
330
55311
102
}
330
55311
100
AcDbXrecord
 70
     0
  0
XRECORD
  5
55315
102
{ACAD_REACTORS
330
55311
102
}
330
55311
100
AcDbXrecord
  1

  0
XRECORD
  5
55312
102
{ACAD_REACTORS
330
55311
102
}
330
55311
100
AcDbXrecord
 90
        1
  0
XRECORD
  5
55313
102
{ACAD_REACTORS
330
55311
102
}
330
55311
100
AcDbXrecord
 90
       70
  0
XRECORD
  5
5532A
102
{ACAD_REACTORS
330
55311
102
}
330
55311
100
AcDbXrecord
340
0
  0
XRECORD
  5
55330
102
{ACAD_REACTORS
330
55311
102
}
330
55311
100
AcDbXrecord
 10
0.0
 20
0.0
 30
0.0
  0
XRECORD
  5
5532C
102
{ACAD_REACTORS
330
55311
102
}
330
55311
100
AcDbXrecord
 10
0.0
 20
0.0
 30
0.0
  0
XRECORD
  5
5532F
102
{ACAD_REACTORS
330
55311
102
}
330
55311
100
AcDbXrecord
 10
0.0
 20
0.0
 30
0.0
  0
XRECORD
  5
5532D
102
{ACAD_REACTORS
330
55311
102
}
330
55311
100
AcDbXrecord
 10
0.0
 20
0.0
 30
0.0
  0
XRECORD
  5
5532E
102
{ACAD_REACTORS
330
55311
102
}
330
55311
100
AcDbXrecord
 10
0.0
 20
0.0
 30
0.0
  0
XRECORD
  5
5532B
102
{ACAD_REACTORS
330
55311
102
}
330
55311
100
AcDbXrecord
 10
0.0
 20
0.0
 30
0.0
  0
XRECORD
  5
55328
102
{ACAD_REACTORS
330
55311
102
}
330
55311
100
AcDbXrecord
340
0
  0
XRECORD
  5
55329
102
{ACAD_REACTORS
330
55311
102
}
330
55311
100
AcDbXrecord
 70
     0
  0
XRECORD
  5
5531D
102
{ACAD_REACTORS
330
55311
102
}
330
55311
100
AcDbXrecord
  1
{5CF6C932-8DB3-11D6-88E6-0090279574E7}
  0
DICTIONARYVAR
  5
5530F
102
{ACAD_REACTORS
330
5530E
102
}
330
5530E
100
DictionaryVariables
280
     0
  1
1
  0
ENDSEC
  0
EOF
