  0
SECTION
  2
HEADER
  9
$ACADVER
  1
AC1014
  9
$ACADMAINTVER
 70
     9
  9
$DWGCODEPAGE
  3
ANSI_1252
  9
$INSBASE
 10
1.874249999999999
 20
1.140625
 30
0.0
  9
$EXTMIN
 10
0.1312684207728576
 20
0.4044813959174192
 30
0.0
  9
$EXTMAX
 10
3.616487742519985
 20
1.420624999995563
 30
0.0
  9
$LIMMIN
 10
0.0
 20
0.0
  9
$LIMMAX
 10
18.0
 20
12.0
  9
$ORTHOMODE
 70
     1
  9
$REGENMODE
 70
     1
  9
$FILLMODE
 70
     1
  9
$QTEXTMODE
 70
     0
  9
$MIRRTEXT
 70
     0
  9
$DRAGMODE
 70
     2
  9
$LTSCALE
 40
1.0
  9
$OSMODE
 70
    39
  9
$ATTMODE
 70
     1
  9
$TEXTSIZE
 40
0.125
  9
$TRACEWID
 40
0.05
  9
$TEXTSTYLE
  7
ROMANS
  9
$CLAYER
  8
0
  9
$CELTYPE
  6
BYLAYER
  9
$CECOLOR
 62
   256
  9
$CELTSCALE
 40
1.0
  9
$DELOBJ
 70
     1
  9
$DISPSILH
 70
     1
  9
$DIMSCALE
 40
1.0
  9
$DIMASZ
 40
0.125
  9
$DIMEXO
 40
0.125
  9
$DIMDLI
 40
0.375
  9
$DIMRND
 40
0.0
  9
$DIMDLE
 40
0.0
  9
$DIMEXE
 40
0.125
  9
$DIMTP
 40
0.0
  9
$DIMTM
 40
0.0
  9
$DIMTXT
 40
0.125
  9
$DIMCEN
 40
-0.125
  9
$DIMTSZ
 40
0.0
  9
$DIMTOL
 70
     0
  9
$DIMLIM
 70
     0
  9
$DIMTIH
 70
     1
  9
$DIMTOH
 70
     1
  9
$DIMSE1
 70
     0
  9
$DIMSE2
 70
     0
  9
$DIMTAD
 70
     0
  9
$DIMZIN
 70
     4
  9
$DIMBLK
  1

  9
$DIMASO
 70
     1
  9
$DIMSHO
 70
     1
  9
$DIMPOST
  1

  9
$DIMAPOST
  1

  9
$DIMALT
 70
     0
  9
$DIMALTD
 70
     2
  9
$DIMALTF
 40
25.4
  9
$DIMLFAC
 40
1.0
  9
$DIMTOFL
 70
     0
  9
$DIMTVP
 40
0.0
  9
$DIMTIX
 70
     1
  9
$DIMSOXD
 70
     0
  9
$DIMSAH
 70
     0
  9
$DIMBLK1
  1

  9
$DIMBLK2
  1

  9
$DIMSTYLE
  2
STANDARD
  9
$DIMCLRD
 70
     0
  9
$DIMCLRE
 70
     0
  9
$DIMCLRT
 70
     0
  9
$DIMTFAC
 40
1.0
  9
$DIMGAP
 40
0.09
  9
$DIMJUST
 70
     0
  9
$DIMSD1
 70
     0
  9
$DIMSD2
 70
     0
  9
$DIMTOLJ
 70
     1
  9
$DIMTZIN
 70
     4
  9
$DIMALTZ
 70
     0
  9
$DIMALTTZ
 70
     0
  9
$DIMFIT
 70
     3
  9
$DIMUPT
 70
     0
  9
$DIMUNIT
 70
     2
  9
$DIMDEC
 70
     3
  9
$DIMTDEC
 70
     3
  9
$DIMALTU
 70
     2
  9
$DIMALTTD
 70
     2
  9
$DIMTXSTY
  7
ROMANS
  9
$DIMAUNIT
 70
     0
  9
$LUNITS
 70
     2
  9
$LUPREC
 70
     3
  9
$SKETCHINC
 40
0.1
  9
$FILLETRAD
 40
0.03125
  9
$AUNITS
 70
     0
  9
$AUPREC
 70
     0
  9
$MENU
  1
ACAD
  9
$ELEVATION
 40
0.0
  9
$PELEVATION
 40
0.0
  9
$THICKNESS
 40
0.0
  9
$LIMCHECK
 70
     0
  9
$BLIPMODE
 70
     0
  9
$CHAMFERA
 40
0.0
  9
$CHAMFERB
 40
0.0
  9
$CHAMFERC
 40
0.0
  9
$CHAMFERD
 40
0.0
  9
$SKPOLY
 70
     0
  9
$TDCREATE
 40
2448993.356575115
  9
$TDUPDATE
 40
2452458.292253079
  9
$TDINDWG
 40
0.0016930208
  9
$TDUSRTIMER
 40
0.0016930208
  9
$USRTIMER
 70
     1
  9
$ANGBASE
 50
0.0
  9
$ANGDIR
 70
     0
  9
$PDMODE
 70
     0
  9
$PDSIZE
 40
0.0
  9
$PLINEWID
 40
0.0
  9
$COORDS
 70
     2
  9
$SPLFRAME
 70
     0
  9
$SPLINETYPE
 70
     6
  9
$SPLINESEGS
 70
     8
  9
$ATTDIA
 70
     0
  9
$ATTREQ
 70
     1
  9
$HANDLING
 70
 22529
  9
$HANDSEED
  5
2B389
  9
$SURFTAB1
 70
     6
  9
$SURFTAB2
 70
     6
  9
$SURFTYPE
 70
     6
  9
$SURFU
 70
     6
  9
$SURFV
 70
     6
  9
$UCSNAME
  2

  9
$UCSORG
 10
0.0
 20
0.0
 30
0.0
  9
$UCSXDIR
 10
1.0
 20
0.0
 30
0.0
  9
$UCSYDIR
 10
0.0
 20
1.0
 30
0.0
  9
$PUCSNAME
  2

  9
$PUCSORG
 10
0.0
 20
0.0
 30
0.0
  9
$PUCSXDIR
 10
1.0
 20
0.0
 30
0.0
  9
$PUCSYDIR
 10
0.0
 20
1.0
 30
0.0
  9
$USERI1
 70
     0
  9
$USERI2
 70
     0
  9
$USERI3
 70
     0
  9
$USERI4
 70
     0
  9
$USERI5
 70
     0
  9
$USERR1
 40
0.0
  9
$USERR2
 40
0.0
  9
$USERR3
 40
0.0
  9
$USERR4
 40
0.0
  9
$USERR5
 40
0.0
  9
$WORLDVIEW
 70
     1
  9
$SHADEDGE
 70
     3
  9
$SHADEDIF
 70
    70
  9
$TILEMODE
 70
     1
  9
$MAXACTVP
 70
    16
  9
$PINSBASE
 10
1.15470845529125
 20
50.00000000000001
 30
2.14329268564395
  9
$PLIMCHECK
 70
     0
  9
$PEXTMIN
 10
1.000000000000000E+20
 20
1.000000000000000E+20
 30
1.000000000000000E+20
  9
$PEXTMAX
 10
-1.000000000000000E+20
 20
-1.000000000000000E+20
 30
-1.000000000000000E+20
  9
$PLIMMIN
 10
0.0
 20
0.0
  9
$PLIMMAX
 10
12.0
 20
9.0
  9
$UNITMODE
 70
     0
  9
$VISRETAIN
 70
     0
  9
$PLINEGEN
 70
     1
  9
$PSLTSCALE
 70
     0
  9
$TREEDEPTH
 70
  3020
  9
$PICKSTYLE
 70
     1
  9
$CMLSTYLE
  2
STANDARD
  9
$CMLJUST
 70
     0
  9
$CMLSCALE
 40
1.0
  9
$PROXYGRAPHICS
 70
     1
  9
$MEASUREMENT
 70
     0
  0
ENDSEC
  0
SECTION
  2
CLASSES
  0
CLASS
  1
LWPOLYLINE
  2
AcDbPolyline
  3
AutoCAD 2000
 90
        0
280
     0
281
     1
  0
CLASS
  1
ACDBDICTIONARYWDFLT
  2
AcDbDictionaryWithDefault
  3
AutoCAD 2000
 90
        0
280
     0
281
     0
  0
CLASS
  1
ACDBPLACEHOLDER
  2
AcDbPlaceHolder
  3
AutoCAD 2000
 90
        0
280
     0
281
     0
  0
CLASS
  1
LAYOUT
  2
AcDbLayout
  3
AutoCAD 2000
 90
        0
280
     0
281
     0
  0
CLASS
  1
DICTIONARYVAR
  2
AcDbDictionaryVar
  3
AutoCAD 2000
 90
        0
280
     0
281
     0
  0
CLASS
  1
LONG_TRANSACTION
  2
AcDbLongTransaction
  3
AutoCAD 2000
 90
        0
280
     0
281
     0
  0
CLASS
  1
LWPOLYLINE
  2
AcDbPolyline
  3
AutoCAD 2000
 90
        0
280
     0
281
     1
  0
CLASS
  1
HATCH
  2
AcDbHatch
  3
AutoCAD 2000
 90
        0
280
     0
281
     1
  0
CLASS
  1
XRECORD
  2
AcDbXrecord
  3
AutoCAD 2000
 90
        0
280
     0
281
     0
  0
ENDSEC
  0
SECTION
  2
TABLES
  0
TABLE
  2
VPORT
  5
2B330
330
0
100
AcDbSymbolTable
 70
     2
  0
VPORT
  5
2B364
330
2B330
100
AcDbSymbolTableRecord
100
AcDbViewportTableRecord
  2
*ACTIVE
 70
     0
 10
0.0
 20
0.0
 11
1.0
 21
1.0
 12
4.849642597065621
 22
0.9128723364706061
 13
0.0
 23
0.0
 14
0.015625
 24
0.015625
 15
0.0
 25
0.0
 16
0.0
 26
0.0
 36
1.0
 17
0.0
 27
0.0
 37
0.0
 40
2.282647215150728
 41
4.320930232558139
 42
50.0
 43
0.0
 44
0.0
 50
0.0
 51
0.0
 71
     0
 72
  2000
 73
     1
 74
     0
 75
     1
 76
     0
 77
     0
 78
     0
  0
ENDTAB
  0
TABLE
  2
LTYPE
  5
2B32D
330
0
100
AcDbSymbolTable
 70
     1
  0
LTYPE
  5
2B33A
330
2B32D
100
AcDbSymbolTableRecord
100
AcDbLinetypeTableRecord
  2
BYBLOCK
 70
     0
  3

 72
    65
 73
     0
 40
0.0
  0
LTYPE
  5
2B33B
330
2B32D
100
AcDbSymbolTableRecord
100
AcDbLinetypeTableRecord
  2
BYLAYER
 70
     0
  3

 72
    65
 73
     0
 40
0.0
  0
LTYPE
  5
2B33C
330
2B32D
100
AcDbSymbolTableRecord
100
AcDbLinetypeTableRecord
  2
CONTINUOUS
 70
     0
  3
Solid line
 72
    65
 73
     0
 40
0.0
  0
ENDTAB
  0
TABLE
  2
LAYER
  5
2B32A
330
0
100
AcDbSymbolTable
 70
     2
  0
LAYER
  5
2B337
330
2B32A
100
AcDbSymbolTableRecord
100
AcDbLayerTableRecord
  2
0
 70
     0
 62
     7
  6
CONTINUOUS
  0
LAYER
  5
2B347
330
2B32A
100
AcDbSymbolTableRecord
100
AcDbLayerTableRecord
  2
TEXT
 70
     0
 62
     3
  6
CONTINUOUS
  0
ENDTAB
  0
TABLE
  2
STYLE
  5
2B32B
330
0
100
AcDbSymbolTable
 70
     3
  0
STYLE
  5
2B338
330
2B32B
100
AcDbSymbolTableRecord
100
AcDbTextStyleTableRecord
  2
STANDARD
 70
     0
 40
0.0
 41
1.0
 50
0.0
 71
     0
 42
0.3125
  3
txt
  4

  0
STYLE
  5
2B344
330
2B32B
100
AcDbSymbolTableRecord
100
AcDbTextStyleTableRecord
  2
ITALICC
 70
     0
 40
0.0
 41
1.0
 50
0.0
 71
     0
 42
0.125
  3
italicc
  4

  0
STYLE
  5
2B354
330
2B32B
100
AcDbSymbolTableRecord
100
AcDbTextStyleTableRecord
  2
ROMANS
 70
     0
 40
0.0
 41
1.0
 50
0.0
 71
     0
 42
0.125
  3
romans.shx
  4

  0
ENDTAB
  0
TABLE
  2
VIEW
  5
2B32E
330
0
100
AcDbSymbolTable
 70
     0
  0
ENDTAB
  0
TABLE
  2
UCS
  5
2B32F
330
0
100
AcDbSymbolTable
 70
     0
  0
ENDTAB
  0
TABLE
  2
APPID
  5
2B331
330
0
100
AcDbSymbolTable
 70
     1
  0
APPID
  5
2B339
330
2B331
100
AcDbSymbolTableRecord
100
AcDbRegAppTableRecord
  2
ACAD
 70
     0
  0
ENDTAB
  0
TABLE
  2
DIMSTYLE
  5
2B332
330
0
100
AcDbSymbolTable
 70
     1
  0
DIMSTYLE
105
2B34C
330
2B332
100
AcDbSymbolTableRecord
100
AcDbDimStyleTableRecord
  2
STANDARD
 70
     0
  3

  4

  5

  6

  7

 40
1.0
 41
0.125
 42
0.125
 43
0.375
 44
0.125
 45
0.0
 46
0.0
 47
0.0
 48
0.0
140
0.125
141
-0.125
142
0.0
143
25.4
144
1.0
145
0.0
146
1.0
147
0.09
 71
     0
 72
     0
 73
     1
 74
     1
 75
     0
 76
     0
 77
     0
 78
     4
170
     0
171
     2
172
     0
173
     0
174
     1
175
     0
176
     0
177
     0
178
     0
270
     2
271
     3
272
     3
273
     2
274
     2
340
2B354
275
     0
280
     0
281
     0
282
     0
283
     1
284
     4
285
     0
286
     0
287
     3
288
     0
  0
ENDTAB
  0
TABLE
  2
BLOCK_RECORD
  5
2B329
330
0
100
AcDbSymbolTable
 70
     0
  0
BLOCK_RECORD
  5
2B340
102
{ACAD_XDICTIONARY
360
2B387
102
}
330
2B329
100
AcDbSymbolTableRecord
100
AcDbBlockTableRecord
  2
*MODEL_SPACE
  0
BLOCK_RECORD
  5
2B33D
102
{ACAD_XDICTIONARY
360
2B385
102
}
330
2B329
100
AcDbSymbolTableRecord
100
AcDbBlockTableRecord
  2
*PAPER_SPACE
  0
ENDTAB
  0
ENDSEC
  0
SECTION
  2
BLOCKS
  0
BLOCK
  5
2B34A
330
2B340
100
AcDbEntity
  8
0
100
AcDbBlockBegin
  2
*MODEL_SPACE
 70
     0
 10
0.0
 20
0.0
 30
0.0
  3
*MODEL_SPACE
  1

  0
ENDBLK
  5
2B34B
330
2B340
100
AcDbEntity
  8
0
100
AcDbBlockEnd
  0
BLOCK
  5
2B348
330
2B33D
100
AcDbEntity
 67
     1
  8
0
100
AcDbBlockBegin
  2
*PAPER_SPACE
 70
     0
 10
0.0
 20
0.0
 30
0.0
  3
*PAPER_SPACE
  1

  0
ENDBLK
  5
2B349
330
2B33D
100
AcDbEntity
 67
     1
  8
0
100
AcDbBlockEnd
  0
ENDSEC
  0
SECTION
  2
ENTITIES
  0
LWPOLYLINE
  5
29B3C
330
2B340
100
AcDbEntity
  8
0
100
AcDbPolyline
 90
       23
 70
     1
 43
0.0
 10
1.533250000000001
 20
1.200624999999998
 10
1.310249999999999
 20
1.200624999999998
 42
0.4142135623730951
 10
1.280249999999999
 20
1.170624999999999
 42
0.4142135623730951
 10
1.310249999999999
 20
1.140625
 10
1.874249999999999
 20
1.140625
 10
2.43825
 20
1.140625
 42
0.4142135623730906
 10
2.468249999999999
 20
1.170624999999999
 10
2.468249999999999
 20
1.170624999999999
 42
0.4142135623730951
 10
2.43825
 20
1.200624999999998
 10
2.21525
 20
1.200624999999998
 10
2.195249999999998
 20
1.310624999999982
 10
2.230249999999949
 20
1.345624999999932
 42
0.9999997032211298
 10
2.08025
 20
1.345624999999998
 10
2.115249999999998
 20
1.310624999999999
 10
2.095249999999999
 20
1.200624999999998
 10
1.884249999999998
 20
1.200624999999998
 10
1.87425
 20
1.190625
 10
1.864250000000001
 20
1.200624999999998
 10
1.65325
 20
1.200624999999998
 10
1.633250000000001
 20
1.310624999999999
 10
1.66825000000004
 20
1.345625000000039
 42
0.9999999999403238
 10
1.518250000000039
 20
1.345624999999945
 10
1.553250000000001
 20
1.310624999999982
  0
TEXT
  5
2B1EB
330
2B340
100
AcDbEntity
  8
TEXT
100
AcDbText
 10
1.12127380952381
 20
0.8625000000000007
 30
0.0
 40
0.125
  1
PART #110019
  7
ITALICC
 72
     1
 11
1.87425
 21
0.8625000000000007
 31
0.0
100
AcDbText
  0
TEXT
  5
2B1EC
330
2B340
100
AcDbEntity
  8
TEXT
100
AcDbText
 10
2.287555158250321
 20
0.4155773573276256
 30
0.0
 40
0.0522247191011236
  1
Phone  1-800-328-2495
 41
1.272321428571429
 72
     5
 11
3.616487742519985
 21
0.4155773573276256
 31
0.0
100
AcDbText
  0
TEXT
  5
2B1ED
330
2B340
100
AcDbEntity
  8
TEXT
100
AcDbText
 10
2.287555158250321
 20
0.6953526382265021
 30
0.0
 40
0.0522247191011236
  1
Stylmark  Incorporated
 41
1.221428571428573
 72
     5
 11
3.616487742519985
 21
0.6953526382265021
 31
0.0
100
AcDbText
  0
TEXT
  5
2B1EE
330
2B340
100
AcDbEntity
  8
TEXT
100
AcDbText
 10
2.287555158250321
 20
0.6020942112602099
 30
0.0
 40
0.0522247191011236
  1
6536 Main St. N.E. * P.O. Box 32008
 41
0.8388932496075366
 72
     5
 11
3.616487742519985
 21
0.6020942112602099
 31
0.0
100
AcDbText
  0
TEXT
  5
2B1EF
330
2B340
100
AcDbEntity
  8
TEXT
100
AcDbText
 10
2.287555158250321
 20
0.5088357842939178
 30
0.0
 40
0.0522247191011236
  1
Minneapolis, MN 55432-0008
 41
1.11444212721585
 72
     5
 11
3.616487742519985
 21
0.5088357842939178
 31
0.0
100
AcDbText
  0
LWPOLYLINE
  5
2B1F0
330
2B340
100
AcDbEntity
  8
TEXT
100
AcDbPolyline
 90
        3
 70
     0
 43
0.0006660908203125
 10
0.1316014661830138
 20
0.5292221199650605
 10
0.1316014661830138
 20
0.4159866805119328
 10
0.2448369056361361
 20
0.4159866805119328
  0
LWPOLYLINE
  5
2B1F5
330
2B340
100
AcDbEntity
  8
TEXT
100
AcDbPolyline
 90
        3
 70
     0
 43
0.0006660908203125
 10
0.1582450989955113
 20
0.5292221199650605
 10
0.1582450989955113
 20
0.4426303133244338
 10
0.2448369056361361
 20
0.4426303133244338
  0
LWPOLYLINE
  5
2B1FA
330
2B340
100
AcDbEntity
  8
TEXT
100
AcDbPolyline
 90
        2
 70
     0
 43
0.0001332181640625
 10
0.2048714564173881
 20
0.5392134822697457
 10
0.1316014661830138
 20
0.5292221199650605
  0
LWPOLYLINE
  5
2B1FE
330
2B340
100
AcDbEntity
  8
TEXT
100
AcDbPolyline
 90
        2
 70
     0
 43
0.0001332181640625
 10
0.1582450989955113
 20
0.5292221199650605
 10
0.2181932728236386
 20
0.5392134822697457
  0
LWPOLYLINE
  5
2B202
330
2B340
100
AcDbEntity
  8
TEXT
100
AcDbPolyline
 90
        2
 70
     0
 43
0.0001332181640625
 10
0.1582450989955113
 20
0.4426303133244338
 10
0.2181932728236386
 20
0.5025784871525594
  0
LWPOLYLINE
  5
2B206
330
2B340
100
AcDbEntity
  8
TEXT
100
AcDbPolyline
 90
        3
 70
     0
 43
0.0006660908203125
 10
0.2448369056361361
 20
0.6824230086369361
 10
0.1316014661830138
 20
0.6824230086369361
 10
0.1316014661830138
 20
0.5691875691838085
  0
LWPOLYLINE
  5
2B20B
330
2B340
100
AcDbEntity
  8
TEXT
100
AcDbPolyline
 90
        3
 70
     0
 43
0.0006660908203125
 10
0.2448369056361361
 20
0.6557793758244351
 10
0.1582450989955113
 20
0.6557793758244351
 10
0.1582450989955113
 20
0.5691875691838085
  0
LWPOLYLINE
  5
2B210
330
2B340
100
AcDbEntity
  8
TEXT
100
AcDbPolyline
 90
        2
 70
     0
 43
0.0001332181640625
 10
0.1582450989955113
 20
0.6557793758244351
 10
0.2181932728236369
 20
0.5958312019963095
  0
LWPOLYLINE
  5
2B214
330
2B340
100
AcDbEntity
  8
TEXT
100
AcDbPolyline
 90
        2
 70
     0
 43
0.0001332181640625
 10
0.1582450989955113
 20
0.5691875691838085
 10
0.2181932728236369
 20
0.5591962068791197
  0
LWPOLYLINE
  5
2B218
330
2B340
100
AcDbEntity
  8
TEXT
100
AcDbPolyline
 90
        2
 70
     0
 43
0.0001332181640625
 10
0.1316014661830138
 20
0.5691875691838085
 10
0.2048714564173881
 20
0.5591962068791197
  0
LWPOLYLINE
  5
2B21C
330
2B340
100
AcDbEntity
  8
TEXT
100
AcDbPolyline
 90
        2
 70
     0
 43
0.0006660908203125
 10
0.1582450989955113
 20
0.5292221199650605
 10
0.1316014661830138
 20
0.5292221199650605
  0
LWPOLYLINE
  5
2B220
330
2B340
100
AcDbEntity
  8
TEXT
100
AcDbPolyline
 90
        2
 70
     0
 43
0.0006660908203125
 10
0.1582450989955113
 20
0.5691875691838085
 10
0.1316014661830138
 20
0.5691875691838085
  0
LINE
  5
2B224
330
2B340
100
AcDbEntity
  8
TEXT
100
AcDbLine
 10
1.646791895309511
 20
0.6181463139801671
 30
0.0
 11
1.539585621922221
 21
0.6181463139801671
 31
0.0
  0
LINE
  5
2B225
330
2B340
100
AcDbEntity
  8
TEXT
100
AcDbLine
 10
1.675822793653989
 20
0.6824230086369325
 30
0.0
 11
1.54099088443693
 21
0.6824230086369325
 31
0.0
  0
ARC
  5
2B226
330
2B340
100
AcDbEntity
  8
TEXT
100
AcDbCircle
 10
1.600304980830247
 20
0.5131857593739162
 30
0.0
 40
0.0676855811441166
100
AcDbArc
 50
90.0
 51
153.7768192527749
  0
LWPOLYLINE
  5
2B227
330
2B340
100
AcDbEntity
  8
TEXT
100
AcDbPolyline
 90
        2
 70
     0
 43
0.0
 10
1.538553126467411
 20
0.4594409205988597
 42
0.2901071551932823
 10
1.581629059335047
 20
0.4159499756484215
 42
5.328517124445801
  0
ARC
  5
2B22B
330
2B340
100
AcDbEntity
  8
TEXT
100
AcDbCircle
 10
0.8951736031587618
 20
0.4757423669864714
 30
0.0
 40
0.0601160179737537
100
AcDbArc
 50
180.0000000000003
 51
264.0521544866073
  0
LINE
  5
2B22C
330
2B340
100
AcDbEntity
  8
TEXT
100
AcDbLine
 10
0.8986889587843096
 20
0.7168109262310707
 30
0.0
 11
0.8386463539403026
 21
0.7168109262310707
 31
0.0
  0
ARC
  5
2B22D
330
2B340
100
AcDbEntity
  8
TEXT
100
AcDbCircle
 10
0.6629146010417913
 20
0.6003355491904308
 30
0.0
 40
0.0820874594465043
100
AcDbArc
 50
90.0
 51
270.0
  0
LWPOLYLINE
  5
2B22E
330
2B340
100
AcDbEntity
  8
TEXT
100
AcDbPolyline
 90
        2
 70
     0
 43
0.0001332181640625
 10
0.2548282679408267
 20
0.6091530184025565
 10
0.2448369056361361
 20
0.6824230086369361
  0
LWPOLYLINE
  5
2B232
330
2B340
100
AcDbEntity
  8
TEXT
100
AcDbPolyline
 90
        2
 70
     0
 43
0.0001332181640625
 10
0.2448369056361361
 20
0.6557793758244351
 10
0.2548282679408267
 20
0.5958312019963095
  0
LWPOLYLINE
  5
2B236
330
2B340
100
AcDbEntity
  8
TEXT
100
AcDbPolyline
 90
        3
 70
     0
 43
0.0006660908203125
 10
0.3980377943080135
 20
0.5691875691838085
 10
0.3980377943080135
 20
0.6824230086369361
 10
0.2848023548548877
 20
0.6824230086369361
  0
LWPOLYLINE
  5
2B23B
330
2B340
100
AcDbEntity
  8
TEXT
100
AcDbPolyline
 90
        3
 70
     0
 43
0.0006660908203125
 10
0.3713941614955125
 20
0.5691875691838085
 10
0.3713941614955125
 20
0.6557793758244351
 10
0.2848023548548877
 20
0.6557793758244351
  0
LWPOLYLINE
  5
2B240
330
2B340
100
AcDbEntity
  8
TEXT
100
AcDbPolyline
 90
        2
 70
     0
 43
0.0001332181640625
 10
0.3713941614955125
 20
0.6557793758244351
 10
0.3114459876673887
 20
0.5958312019963095
  0
LWPOLYLINE
  5
2B244
330
2B340
100
AcDbEntity
  8
TEXT
100
AcDbPolyline
 90
        2
 70
     0
 43
0.0001332181640625
 10
0.2848023548548877
 20
0.6557793758244351
 10
0.2748109925501989
 20
0.5958312019963095
  0
LWPOLYLINE
  5
2B248
330
2B340
100
AcDbEntity
  8
TEXT
100
AcDbPolyline
 90
        2
 70
     0
 43
0.0001332181640625
 10
0.2848023548548877
 20
0.6824230086369361
 10
0.2748109925501989
 20
0.6091530184025565
  0
LWPOLYLINE
  5
2B24C
330
2B340
100
AcDbEntity
  8
TEXT
100
AcDbPolyline
 90
        2
 70
     0
 43
0.0001332181640625
 10
0.3247678040736375
 20
0.5591962068791197
 10
0.3980377943080135
 20
0.5691875691838085
  0
LWPOLYLINE
  5
2B250
330
2B340
100
AcDbEntity
  8
TEXT
100
AcDbPolyline
 90
        2
 70
     0
 43
0.0001332181640625
 10
0.3713941614955125
 20
0.5691875691838085
 10
0.3114459876673887
 20
0.5591962068791197
  0
LWPOLYLINE
  5
2B254
330
2B340
100
AcDbEntity
  8
TEXT
100
AcDbPolyline
 90
        2
 70
     0
 43
0.0001332181640625
 10
0.3980377943080135
 20
0.5292221199650605
 10
0.3247678040736375
 20
0.5392134822697457
  0
LWPOLYLINE
  5
2B258
330
2B340
100
AcDbEntity
  8
TEXT
100
AcDbPolyline
 90
        2
 70
     0
 43
0.0001332181640625
 10
0.3713941614955125
 20
0.5292221199650605
 10
0.3114459876673887
 20
0.5392134822697457
  0
LWPOLYLINE
  5
2B25C
330
2B340
100
AcDbEntity
  8
TEXT
100
AcDbPolyline
 90
        2
 70
     0
 43
0.0001332181640625
 10
0.3713941614955125
 20
0.4426303133244338
 10
0.3114459876673887
 20
0.5025784871525594
  0
LWPOLYLINE
  5
2B260
330
2B340
100
AcDbEntity
  8
TEXT
100
AcDbPolyline
 90
        3
 70
     0
 43
0.0006660908203125
 10
0.2848023548548877
 20
0.4426303133244338
 10
0.3713941614955125
 20
0.4426303133244338
 10
0.3713941614955125
 20
0.5292221199650605
  0
LWPOLYLINE
  5
2B265
330
2B340
100
AcDbEntity
  8
TEXT
100
AcDbPolyline
 90
        3
 70
     0
 43
0.0006660908203125
 10
0.2848023548548877
 20
0.4159866805119328
 10
0.3980377943080135
 20
0.4159866805119328
 10
0.3980377943080135
 20
0.5292221199650605
  0
LWPOLYLINE
  5
2B26A
330
2B340
100
AcDbEntity
  8
TEXT
100
AcDbPolyline
 90
        5
 70
     0
 43
0.0001332181640625
 10
0.2548282679408267
 20
0.4892566707463089
 10
0.2548282679408267
 20
0.5025784871525594
 10
0.2181932728236386
 20
0.5025784871525594
 10
0.2181932728236386
 20
0.5392134822697457
 10
0.2048714564173881
 20
0.5392134822697457
  0
LWPOLYLINE
  5
2B271
330
2B340
100
AcDbEntity
  8
TEXT
100
AcDbPolyline
 90
        2
 70
     0
 43
0.0006660908203125
 10
0.2448369056361361
 20
0.4426303133244338
 10
0.2448369056361361
 20
0.4159866805119328
  0
LWPOLYLINE
  5
2B275
330
2B340
100
AcDbEntity
  8
TEXT
100
AcDbPolyline
 90
        2
 70
     0
 43
0.0001332181640625
 10
0.2448369056361361
 20
0.4426303133244338
 10
0.2548282679408267
 20
0.5025784871525594
  0
LWPOLYLINE
  5
2B279
330
2B340
100
AcDbEntity
  8
TEXT
100
AcDbPolyline
 90
        2
 70
     0
 43
0.0001332181640625
 10
0.2448369056361361
 20
0.4159866805119328
 10
0.2548282679408267
 20
0.4892566707463089
  0
LWPOLYLINE
  5
2B27D
330
2B340
100
AcDbEntity
  8
TEXT
100
AcDbPolyline
 90
        5
 70
     0
 43
0.0001332181640625
 10
0.2048714564173881
 20
0.5591962068791197
 10
0.2181932728236369
 20
0.5591962068791197
 10
0.2181932728236369
 20
0.5958312019963095
 10
0.2548282679408267
 20
0.5958312019963095
 10
0.2548282679408267
 20
0.6091530184025565
  0
LWPOLYLINE
  5
2B284
330
2B340
100
AcDbEntity
  8
TEXT
100
AcDbPolyline
 90
        5
 70
     0
 43
0.0001332181640625
 10
0.2748109925501989
 20
0.6091530184025565
 10
0.2748109925501989
 20
0.5958312019963095
 10
0.3114459876673887
 20
0.5958312019963095
 10
0.3114459876673887
 20
0.5591962068791197
 10
0.3247678040736375
 20
0.5591962068791197
  0
LWPOLYLINE
  5
2B28B
330
2B340
100
AcDbEntity
  8
TEXT
100
AcDbPolyline
 90
        2
 70
     0
 43
0.0001332181640625
 10
0.2848023548548877
 20
0.4426303133244338
 10
0.2748109925501989
 20
0.5025784871525594
  0
LWPOLYLINE
  5
2B28F
330
2B340
100
AcDbEntity
  8
TEXT
100
AcDbPolyline
 90
        2
 70
     0
 43
0.0001332181640625
 10
0.2748109925501989
 20
0.4892566707463089
 10
0.2848023548548877
 20
0.4159866805119328
  0
LWPOLYLINE
  5
2B293
330
2B340
100
AcDbEntity
  8
TEXT
100
AcDbPolyline
 90
        2
 70
     0
 43
0.0006660908203125
 10
0.2848023548548877
 20
0.4426303133244338
 10
0.2848023548548877
 20
0.4159866805119328
  0
LWPOLYLINE
  5
2B297
330
2B340
100
AcDbEntity
  8
TEXT
100
AcDbPolyline
 90
        5
 70
     0
 43
0.0001332181640625
 10
0.3247678040736375
 20
0.5392134822697457
 10
0.3114459876673887
 20
0.5392134822697457
 10
0.3114459876673887
 20
0.5025784871525594
 10
0.2748109925501989
 20
0.5025784871525594
 10
0.2748109925501989
 20
0.4892566707463089
  0
LWPOLYLINE
  5
2B29E
330
2B340
100
AcDbEntity
  8
TEXT
100
AcDbPolyline
 90
        2
 70
     0
 43
0.0006660908203125
 10
0.3713941614955125
 20
0.5691875691838085
 10
0.3980377943080135
 20
0.5691875691838085
  0
LWPOLYLINE
  5
2B2A2
330
2B340
100
AcDbEntity
  8
TEXT
100
AcDbPolyline
 90
        2
 70
     0
 43
0.0006660908203125
 10
0.3713941614955125
 20
0.5292221199650605
 10
0.3980377943080135
 20
0.5292221199650605
  0
LINE
  5
2B2A6
330
2B340
100
AcDbEntity
  8
TEXT
100
AcDbLine
 10
0.6681519311560385
 20
0.6181463139801671
 30
0.0
 11
0.8350575851850097
 21
0.6181463139801671
 31
0.0
  0
LINE
  5
2B2A7
330
2B340
100
AcDbEntity
  8
TEXT
100
AcDbLine
 10
0.7337520674003395
 20
0.5823415923695392
 30
0.0
 11
0.6681519311560385
 21
0.5823415923695392
 31
0.0
  0
LINE
  5
2B2A8
330
2B340
100
AcDbEntity
  8
TEXT
100
AcDbLine
 10
0.5808271415952868
 20
0.4159499756484215
 30
0.0
 11
0.7337520674003395
 21
0.4159499756484215
 31
0.0
  0
LINE
  5
2B2A9
330
2B340
100
AcDbEntity
  8
TEXT
100
AcDbLine
 10
0.7386924413066192
 20
0.4843069819818609
 30
0.0
 11
0.5808271415952851
 21
0.4843069819818609
 31
0.0
  0
LINE
  5
2B2AA
330
2B340
100
AcDbEntity
  8
TEXT
100
AcDbLine
 10
0.6629146010417904
 20
0.5182480897439255
 30
0.0
 11
0.7386924413066192
 21
0.5182480897439255
 31
0.0
  0
ARC
  5
2B2AB
330
2B340
100
AcDbEntity
  8
TEXT
100
AcDbCircle
 10
0.6681519311560394
 20
0.6002439531748549
 30
0.0
 40
0.017902360805315
100
AcDbArc
 50
90.0
 51
270.0
  0
LINE
  5
2B2AC
330
2B340
100
AcDbEntity
  8
TEXT
100
AcDbLine
 10
0.5808271415952851
 20
0.4843069819818609
 30
0.0
 11
0.5808271415952868
 21
0.4159499756484215
 31
0.0
  0
LINE
  5
2B2AD
330
2B340
100
AcDbEntity
  8
TEXT
100
AcDbLine
 10
0.8350575851850097
 20
0.6181463139801671
 30
0.0
 11
0.8350575851850097
 21
0.4757423669864714
 31
0.0
  0
ARC
  5
2B2AE
330
2B340
100
AcDbEntity
  8
TEXT
100
AcDbCircle
 10
0.7337520674003404
 20
0.4991457840089786
 30
0.0
 40
0.0831958083605586
100
AcDbArc
 50
270.0
 51
90.0
  0
ARC
  5
2B2AF
330
2B340
100
AcDbEntity
  8
TEXT
100
AcDbCircle
 10
0.7386924413066201
 20
0.501277535862895
 30
0.0
 40
0.0169705538810321
100
AcDbArc
 50
270.0
 51
90.0
  0
LWPOLYLINE
  5
2B2B0
330
2B340
100
AcDbEntity
  8
TEXT
100
AcDbPolyline
 90
        2
 70
     0
 43
0.0006660908203125
 10
0.2448369056361361
 20
0.6557793758244351
 10
0.2448369056361361
 20
0.6824230086369361
  0
LWPOLYLINE
  5
2B2B4
330
2B340
100
AcDbEntity
  8
TEXT
100
AcDbPolyline
 90
        2
 70
     0
 43
0.0006660908203125
 10
0.2848023548548877
 20
0.6557793758244351
 10
0.2848023548548877
 20
0.6824230086369361
  0
LINE
  5
2B2B8
330
2B340
100
AcDbEntity
  8
TEXT
100
AcDbLine
 10
0.8386463539403026
 20
0.6824230086369325
 30
0.0
 11
0.6629146010417904
 21
0.6824230086369325
 31
0.0
  0
LINE
  5
2B2B9
330
2B340
100
AcDbEntity
  8
TEXT
100
AcDbLine
 10
0.8386463539403026
 20
0.7168109262310707
 30
0.0
 11
0.8386463539403026
 21
0.6824230086369325
 31
0.0
  0
LINE
  5
2B2BA
330
2B340
100
AcDbEntity
  8
TEXT
100
AcDbLine
 10
1.029118245960154
 20
0.581551012523812
 30
0.0
 11
0.970487924928217
 21
0.6824230086369325
 31
0.0
  0
LINE
  5
2B2BB
330
2B340
100
AcDbEntity
  8
TEXT
100
AcDbLine
 10
1.08786680876602
 20
0.6824230086369325
 30
0.0
 11
1.029118245960154
 21
0.581551012523812
 31
0.0
  0
LINE
  5
2B2BC
330
2B340
100
AcDbEntity
  8
TEXT
100
AcDbLine
 10
1.184797434125761
 20
0.4983378137514208
 30
0.0
 11
1.184797434125761
 21
0.7504344863757431
 31
0.0
  0
LINE
  5
2B2BD
330
2B340
100
AcDbEntity
  8
TEXT
100
AcDbLine
 10
1.217109288263421
 20
0.6824230086369325
 30
0.0
 11
1.217109288263421
 21
0.4815588019045243
 31
0.0
  0
LINE
  5
2B2BE
330
2B340
100
AcDbEntity
  8
TEXT
100
AcDbLine
 10
1.217109288263421
 20
0.4815588019045243
 30
0.0
 11
1.20011565137882
 21
0.4815588019045243
 31
0.0
  0
LINE
  5
2B2BF
330
2B340
100
AcDbEntity
  8
TEXT
100
AcDbLine
 10
1.185937007621956
 20
0.4159499756484215
 30
0.0
 11
1.283940341321391
 21
0.4159499756484215
 31
0.0
  0
LINE
  5
2B2C0
330
2B340
100
AcDbEntity
  8
TEXT
100
AcDbLine
 10
1.0195180089632
 20
0.4359084817534345
 30
0.0
 11
1.116817715056645
 21
0.6002586926887026
 31
0.0
  0
ARC
  5
2B2C1
330
2B340
100
AcDbEntity
  8
TEXT
100
AcDbCircle
 10
0.9854744490509865
 20
0.4554976979221173
 30
0.0
 40
0.0392772371940762
100
AcDbArc
 50
270.1604552698595
 51
330.0831797321295
  0
LINE
  5
2B2C2
330
2B340
100
AcDbEntity
  8
TEXT
100
AcDbLine
 10
0.8889441926651153
 20
0.4159499756484215
 30
0.0
 11
0.9855844437401097
 21
0.4162206147467038
 31
0.0
  0
LWPOLYLINE
  5
2B2C3
330
2B340
100
AcDbEntity
  8
TEXT
100
AcDbPolyline
 90
        6
 70
     1
 43
0.0
 10
0.9314679962402649
 20
0.6181463139801671
 10
0.9011514020200568
 20
0.6181463139801671
 10
0.9011514020200568
 20
0.4950353159252728
 42
0.407328721240804
 10
0.9126950531815332
 20
0.4832164012488867
 10
0.973316752226264
 20
0.4832164012488867
 10
0.9907820926335819
 20
0.5160286302923658
  0
LINE
  5
2B2CB
330
2B340
100
AcDbEntity
  8
TEXT
100
AcDbLine
 10
1.116817715056645
 20
0.6002586926887026
 30
0.0
 11
1.116817715056645
 21
0.4675013178633463
 31
0.0
  0
ARC
  5
2B2CC
330
2B340
100
AcDbEntity
  8
TEXT
100
AcDbCircle
 10
1.200115651378818
 20
0.4969406081479498
 30
0.0
 40
0.0153818062434269
100
AcDbArc
 50
174.7883570302258
 51
270.0
  0
LWPOLYLINE
  5
2B2CD
330
2B340
100
AcDbEntity
  8
TEXT
100
AcDbPolyline
 90
        2
 70
     0
 43
0.0
 10
1.116817715056643
 20
0.4675013178633498
 42
0.3318488747599744
 10
1.185937007621956
 20
0.4159499756484215
 42
-6.868794160588311
  0
LINE
  5
2B2D1
330
2B340
100
AcDbEntity
  8
TEXT
100
AcDbLine
 10
1.341329410310652
 20
0.4159499756484215
 30
0.0
 11
1.408387457092492
 21
0.4159499756484215
 31
0.0
  0
LINE
  5
2B2D2
330
2B340
100
AcDbEntity
  8
TEXT
100
AcDbLine
 10
1.341329410310652
 20
0.6105925248140572
 30
0.0
 11
1.341329410310652
 21
0.4159499756484215
 31
0.0
  0
LINE
  5
2B2D3
330
2B340
100
AcDbEntity
  8
TEXT
100
AcDbLine
 10
1.283940341321391
 20
0.6181463139801671
 30
0.0
 11
1.333775621144538
 21
0.6181463139801671
 31
0.0
  0
LINE
  5
2B2D4
330
2B340
100
AcDbEntity
  8
TEXT
100
AcDbLine
 10
1.283940341321391
 20
0.4159499756484215
 30
0.0
 11
1.283940341321391
 21
0.6181463139801671
 31
0.0
  0
LWPOLYLINE
  5
2B2D5
330
2B340
100
AcDbEntity
  8
TEXT
100
AcDbPolyline
 90
        2
 70
     0
 43
0.0
 10
1.333775621144536
 20
0.6181463139801671
 42
-0.4142135623731017
 10
1.34132941031065
 20
0.6105925248140572
 42
-0.9999999999999998
  0
LINE
  5
2B2D9
330
2B340
100
AcDbEntity
  8
TEXT
100
AcDbLine
 10
1.539585621922221
 20
0.6181463139801671
 30
0.0
 11
1.539585621922221
 21
0.5430939079059605
 31
0.0
  0
LINE
  5
2B2DA
330
2B340
100
AcDbEntity
  8
TEXT
100
AcDbLine
 10
1.408387457092492
 20
0.6181463139801671
 30
0.0
 11
1.462521054013442
 21
0.6181463139801671
 31
0.0
  0
LINE
  5
2B2DB
330
2B340
100
AcDbEntity
  8
TEXT
100
AcDbLine
 10
1.408387457092492
 20
0.4159499756484215
 30
0.0
 11
1.408387457092492
 21
0.6181463139801671
 31
0.0
  0
LWPOLYLINE
  5
2B2DC
330
2B340
100
AcDbEntity
  8
TEXT
100
AcDbPolyline
 90
        2
 70
     0
 43
0.0
 10
1.46252105401344
 20
0.6181463139801671
 42
-0.4142135623731017
 10
1.470074843179554
 20
0.6105925248140572
 42
-0.9999999999999998
  0
LWPOLYLINE
  5
2B2E0
330
2B340
100
AcDbEntity
  8
TEXT
100
AcDbPolyline
 90
        4
 70
     0
 43
0.0
 10
1.470074843179554
 20
0.6105925248140572
 10
1.470074843179554
 20
0.4159499756484215
 10
1.538553126467411
 20
0.4159499756484215
 10
1.538553126467411
 20
0.4594409205988597
 42
-1.714843617202739
  0
LINE
  5
2B2E6
330
2B340
100
AcDbEntity
  8
TEXT
100
AcDbLine
 10
0.8986889587843096
 20
0.6824230086369325
 30
0.0
 11
0.8986889587843096
 21
0.7168109262310707
 31
0.0
  0
LINE
  5
2B2E7
330
2B340
100
AcDbEntity
  8
TEXT
100
AcDbLine
 10
0.970487924928217
 20
0.6824230086369325
 30
0.0
 11
0.8986889587843096
 21
0.6824230086369325
 31
0.0
  0
LINE
  5
2B2E8
330
2B340
100
AcDbEntity
  8
TEXT
100
AcDbLine
 10
1.117988721559396
 20
0.6824230086369325
 30
0.0
 11
1.08786680876602
 21
0.6824230086369325
 31
0.0
  0
LINE
  5
2B2E9
330
2B340
100
AcDbEntity
  8
TEXT
100
AcDbLine
 10
1.117988721559396
 20
0.7504344863757431
 30
0.0
 11
1.117988721559396
 21
0.6824230086369325
 31
0.0
  0
LINE
  5
2B2EA
330
2B340
100
AcDbEntity
  8
TEXT
100
AcDbLine
 10
1.184797434125761
 20
0.7504344863757431
 30
0.0
 11
1.117988721559396
 21
0.7504344863757431
 31
0.0
  0
LWPOLYLINE
  5
2B2EB
330
2B340
100
AcDbEntity
  8
TEXT
100
AcDbPolyline
 90
        3
 70
     0
 43
0.0
 10
1.505209193723763
 20
0.6824230086369361
 10
1.386909034907719
 20
0.6824230086369361
 10
1.386909034907719
 20
0.6552555118760402
 42
-1.960274751411753
  0
LINE
  5
2B2F0
330
2B340
100
AcDbEntity
  8
TEXT
100
AcDbLine
 10
1.351127344194558
 20
0.6824230086369325
 30
0.0
 11
1.217109288263421
 21
0.6824230086369325
 31
0.0
  0
LWPOLYLINE
  5
2B2F1
330
2B340
100
AcDbEntity
  8
TEXT
100
AcDbPolyline
 90
        2
 70
     0
 43
0.0
 10
1.351127344194558
 20
0.6824230086369361
 42
-0.3328679258950098
 10
1.386909034907719
 20
0.6552555118760402
 42
6.772930709997214
  0
LINE
  5
2B2F5
330
2B340
100
AcDbEntity
  8
TEXT
100
AcDbLine
 10
1.54099088443693
 20
0.6824230086369325
 30
0.0
 11
1.54099088443693
 21
0.6541004628672887
 31
0.0
  0
LWPOLYLINE
  5
2B2F6
330
2B340
100
AcDbEntity
  8
TEXT
100
AcDbPolyline
 90
        2
 70
     0
 43
0.0
 10
1.505209193723763
 20
0.6824230086369361
 42
-0.3277054968067132
 10
1.540990884436928
 20
0.6541004628672922
 42
6.667889725900311
  0
LINE
  5
2B2FA
330
2B340
100
AcDbEntity
  8
TEXT
100
AcDbLine
 10
1.75478273252903
 20
0.5772110300835052
 30
0.0
 11
1.711031961347129
 21
0.6594613060796504
 31
0.0
  0
LINE
  5
2B2FB
330
2B340
100
AcDbEntity
  8
TEXT
100
AcDbLine
 10
1.75478273252903
 20
0.6824230086369325
 30
0.0
 11
1.75478273252903
 21
0.5772110300835052
 31
0.0
  0
LINE
  5
2B2FC
330
2B340
100
AcDbEntity
  8
TEXT
100
AcDbLine
 10
1.982466471467399
 20
0.6065576822253945
 30
0.0
 11
1.982466471467399
 21
0.7478872144045332
 31
0.0
  0
LINE
  5
2B2FD
330
2B340
100
AcDbEntity
  8
TEXT
100
AcDbLine
 10
2.029564630023384
 20
0.6824230086369325
 30
0.0
 11
1.982466471467399
 21
0.6065576822253945
 31
0.0
  0
LINE
  5
2B2FE
330
2B340
100
AcDbEntity
  8
TEXT
100
AcDbLine
 10
2.039999346787307
 20
0.572529765695959
 30
0.0
 11
2.104556462753012
 21
0.6824230086369325
 31
0.0
  0
LINE
  5
2B2FF
330
2B340
100
AcDbEntity
  8
TEXT
100
AcDbLine
 10
1.918631480244626
 20
0.4159499756484215
 30
0.0
 11
1.983009664563247
 21
0.4159499756484215
 31
0.0
  0
LWPOLYLINE
  5
2B300
330
2B340
100
AcDbEntity
  8
TEXT
100
AcDbPolyline
 90
        2
 70
     0
 43
0.0
 10
1.758722409834068
 20
0.4594409205988597
 42
-0.2901071551932486
 10
1.715646476966424
 20
0.4159499756484215
 42
-5.328517124445184
  0
ARC
  5
2B304
330
2B340
100
AcDbEntity
  8
TEXT
100
AcDbCircle
 10
1.646791895309509
 20
0.5897869389801698
 30
0.0
 40
0.028359375
100
AcDbArc
 50
25.78218179591245
 51
90.0
  0
LINE
  5
2B305
330
2B340
100
AcDbEntity
  8
TEXT
100
AcDbLine
 10
1.682592970613632
 20
0.5808713405180348
 30
0.0
 11
1.672328210200068
 21
0.6021218800907291
 31
0.0
  0
LINE
  5
2B306
330
2B340
100
AcDbEntity
  8
TEXT
100
AcDbLine
 10
1.600304980830249
 20
0.5808713405180348
 30
0.0
 11
1.682592970613632
 21
0.5808713405180348
 31
0.0
  0
LWPOLYLINE
  5
2B307
330
2B340
100
AcDbEntity
  8
TEXT
100
AcDbPolyline
 90
        4
 70
     1
 43
0.0
 10
1.695524011896531
 20
0.5189139536324468
 10
1.606863693236673
 20
0.5189139536324468
 42
0.9999999999999998
 10
1.606863693236673
 20
0.4765154131285861
 10
1.695524011896531
 20
0.4765154131285861
 42
1.0
  0
LWPOLYLINE
  5
2B30D
330
2B340
100
AcDbEntity
  8
TEXT
100
AcDbPolyline
 90
        2
 70
     0
 43
0.0
 10
1.581629059335047
 20
0.4159499756484215
 10
1.715646476966424
 20
0.4159499756484215
 42
0.9999999999999998
  0
LINE
  5
2B311
330
2B340
100
AcDbEntity
  8
TEXT
100
AcDbLine
 10
1.841983498952063
 20
0.6181463139801671
 30
0.0
 11
1.918631480244621
 21
0.6181463139801671
 31
0.0
  0
LINE
  5
2B312
330
2B340
100
AcDbEntity
  8
TEXT
100
AcDbLine
 10
1.918631480244621
 20
0.6181463139801671
 30
0.0
 11
1.918631480244626
 21
0.4159499756484215
 31
0.0
  0
ARC
  5
2B313
330
2B340
100
AcDbEntity
  8
TEXT
100
AcDbCircle
 10
1.841983498952061
 20
0.5932404386975044
 30
0.0
 40
0.0249058752826653
100
AcDbArc
 50
89.99971217465335
 51
179.9999999999985
  0
LINE
  5
2B314
330
2B340
100
AcDbEntity
  8
TEXT
100
AcDbLine
 10
1.817077623669404
 20
0.4159499756484215
 30
0.0
 11
1.817077623669399
 21
0.59324048107989
 31
0.0
  0
LWPOLYLINE
  5
2B315
330
2B340
100
AcDbEntity
  8
TEXT
100
AcDbPolyline
 90
        2
 70
     0
 43
0.0
 10
1.758722409834068
 20
0.4159499756484215
 10
1.817077623669402
 20
0.4159499756484215
  0
LWPOLYLINE
  5
2B319
330
2B340
100
AcDbEntity
  8
TEXT
100
AcDbPolyline
 90
        2
 70
     0
 43
0.0
 10
1.758722409834068
 20
0.4594409205988597
 10
1.758722409834068
 20
0.4159499756484215
  0
LINE
  5
2B31D
330
2B340
100
AcDbEntity
  8
TEXT
100
AcDbLine
 10
2.135491570150917
 20
0.4159499756484215
 30
0.0
 11
2.039999346787307
 21
0.572529765695959
 31
0.0
  0
LINE
  5
2B31E
330
2B340
100
AcDbEntity
  8
TEXT
100
AcDbLine
 10
2.058913197774711
 20
0.4159499756484215
 30
0.0
 11
2.135491570150917
 21
0.4159499756484215
 31
0.0
  0
LINE
  5
2B31F
330
2B340
100
AcDbEntity
  8
TEXT
100
AcDbLine
 10
1.983009664563247
 20
0.5475295441246018
 30
0.0
 11
2.058913197774711
 21
0.4159499756484215
 31
0.0
  0
LINE
  5
2B320
330
2B340
100
AcDbEntity
  8
TEXT
100
AcDbLine
 10
1.983009664563247
 20
0.4159499756484215
 30
0.0
 11
1.983009664563247
 21
0.5475295441246018
 31
0.0
  0
LINE
  5
2B321
330
2B340
100
AcDbEntity
  8
TEXT
100
AcDbLine
 10
1.982466471467399
 20
0.7478872144045332
 30
0.0
 11
1.914151592918126
 21
0.7478872144045332
 31
0.0
  0
ARC
  5
2B322
330
2B340
100
AcDbEntity
  8
TEXT
100
AcDbCircle
 10
1.67379585387692
 20
0.6408394415160302
 30
0.0
 40
0.0416329381542859
100
AcDbArc
 50
26.56974201007528
 51
87.20939649401342
  0
LINE
  5
2B323
330
2B340
100
AcDbEntity
  8
TEXT
100
AcDbLine
 10
1.818679638828531
 20
0.6824230086369325
 30
0.0
 11
1.75478273252903
 21
0.6824230086369325
 31
0.0
  0
LINE
  5
2B324
330
2B340
100
AcDbEntity
  8
TEXT
100
AcDbLine
 10
1.818679638828531
 20
0.6548753587760579
 30
0.0
 11
1.818679638828531
 21
0.6824230086369325
 31
0.0
  0
ARC
  5
2B325
330
2B340
100
AcDbEntity
  8
TEXT
100
AcDbCircle
 10
1.849872455891639
 20
0.6511772813546677
 30
0.0
 40
0.0314112657011332
100
AcDbArc
 50
95.88484768694724
 51
173.2388340632136
  0
LINE
  5
2B326
330
2B340
100
AcDbEntity
  8
TEXT
100
AcDbLine
 10
1.914151592918121
 20
0.6824230086369325
 30
0.0
 11
1.846651875268604
 21
0.6824230086369325
 31
0.0
  0
LINE
  5
2B327
330
2B340
100
AcDbEntity
  8
TEXT
100
AcDbLine
 10
1.914151592918126
 20
0.7478872144045332
 30
0.0
 11
1.914151592918121
 21
0.6824230086369325
 31
0.0
  0
LINE
  5
2B328
330
2B340
100
AcDbEntity
  8
TEXT
100
AcDbLine
 10
2.104556462753012
 20
0.6824230086369325
 30
0.0
 11
2.029564630023386
 21
0.6824230086369325
 31
0.0
  0
ENDSEC
  0
SECTION
  2
OBJECTS
  0
DICTIONARY
  5
2B334
330
0
100
AcDbDictionary
  3
ACAD_GROUP
350
2B335
  3
ACAD_LAYOUT
350
2B35A
  3
ACAD_MLINESTYLE
350
2B336
  3
ACAD_PLOTSETTINGS
350
2B35B
  3
ACAD_PLOTSTYLENAME
350
2B358
  3
ACDBHEADERROUNDTRIPXREC
350
2B365
  3
ACDBVARIABLEDICTIONARY
350
2B362
  0
DICTIONARY
  5
2B387
330
2B340
100
AcDbDictionary
280
     1
  3
ACAD_LAYOUTSELFREF
360
2B388
  0
DICTIONARY
  5
2B385
330
2B33D
100
AcDbDictionary
280
     1
  3
ACAD_LAYOUTSELFREF
360
2B386
  0
DICTIONARY
  5
2B335
102
{ACAD_REACTORS
330
2B334
102
}
330
2B334
100
AcDbDictionary
  0
DICTIONARY
  5
2B35A
102
{ACAD_REACTORS
330
2B334
102
}
330
2B334
100
AcDbDictionary
  0
DICTIONARY
  5
2B336
102
{ACAD_REACTORS
330
2B334
102
}
330
2B334
100
AcDbDictionary
  3
STANDARD
350
2B343
  0
DICTIONARY
  5
2B35B
102
{ACAD_REACTORS
330
2B334
102
}
330
2B334
100
AcDbDictionary
  0
ACDBDICTIONARYWDFLT
  5
2B358
102
{ACAD_REACTORS
330
2B334
102
}
330
2B334
100
AcDbDictionary
281
     1
  3
Normal
350
2B359
100
AcDbDictionaryWithDefault
340
2B359
  0
DICTIONARY
  5
2B365
102
{ACAD_REACTORS
330
2B334
102
}
330
2B334
100
AcDbDictionary
  3
CEPSNTYPE
350
2B36F
  3
FINGERPRINTGUID
350
2B370
  3
HYPERLINKBASE
350
2B368
  3
INSUNITS
350
2B36E
  3
LAYOUTDICT
350
2B36A
  3
LWETCUNION
350
2B36D
  3
PLOTSETDICT
350
2B36B
  3
PLOTSTYLNAMDICT
350
2B36C
  3
PSVPSCALE
350
2B372
  3
PUCSBASE
350
2B375
  3
PUCSORGBACK
350
2B37B
  3
PUCSORGBOTTOM
350
2B377
  3
PUCSORGFRONT
350
2B37A
  3
PUCSORGLEFT
350
2B378
  3
PUCSORGRIGHT
350
2B379
  3
PUCSORGTOP
350
2B376
  3
PUCSORTHOREF
350
2B373
  3
PUCSORTHOVIEW
350
2B374
  3
STYLESHEET
350
2B369
  3
TSTACKALIGN
350
2B366
  3
TSTACKSIZE
350
2B367
  3
UCSBASE
350
2B37E
  3
UCSORGBACK
350
2B384
  3
UCSORGBOTTOM
350
2B380
  3
UCSORGFRONT
350
2B383
  3
UCSORGLEFT
350
2B381
  3
UCSORGRIGHT
350
2B382
  3
UCSORGTOP
350
2B37F
  3
UCSORTHOREF
350
2B37C
  3
UCSORTHOVIEW
350
2B37D
  3
VERSIONGUID
350
2B371
  0
DICTIONARY
  5
2B362
102
{ACAD_REACTORS
330
2B334
102
}
330
2B334
100
AcDbDictionary
  3
DIMASSOC
350
2B363
  0
XRECORD
  5
2B388
102
{ACAD_REACTORS
330
2B387
102
}
330
2B387
100
AcDbXrecord
340
2B340
  0
XRECORD
  5
2B386
102
{ACAD_REACTORS
330
2B385
102
}
330
2B385
100
AcDbXrecord
340
2B33D
  0
MLINESTYLE
  5
2B343
102
{ACAD_REACTORS
330
2B336
102
}
330
2B336
100
AcDbMlineStyle
  2
STANDARD
 70
     0
  3

 62
     0
 51
90.0
 52
90.0
 71
     2
 49
0.5
 62
   256
  6
BYLAYER
 49
-0.5
 62
   256
  6
BYLAYER
  0
ACDBPLACEHOLDER
  5
2B359
102
{ACAD_REACTORS
330
2B358
102
}
330
2B358
100
AcDbPlaceHolder
280
     0
  0
XRECORD
  5
2B36F
102
{ACAD_REACTORS
330
2B365
102
}
330
2B365
100
AcDbXrecord
 90
        0
  0
XRECORD
  5
2B370
102
{ACAD_REACTORS
330
2B365
102
}
330
2B365
100
AcDbXrecord
  1
{58BFF6D0-8DB3-11D6-88E6-0090279574E7}
  0
XRECORD
  5
2B368
102
{ACAD_REACTORS
330
2B365
102
}
330
2B365
100
AcDbXrecord
  1

  0
XRECORD
  5
2B36E
102
{ACAD_REACTORS
330
2B365
102
}
330
2B365
100
AcDbXrecord
 90
        0
  0
XRECORD
  5
2B36A
102
{ACAD_REACTORS
330
2B365
102
}
330
2B365
100
AcDbXrecord
340
2B35A
  0
XRECORD
  5
2B36D
102
{ACAD_REACTORS
330
2B365
102
}
330
2B365
100
AcDbXrecord
 90
    14877
  0
XRECORD
  5
2B36B
102
{ACAD_REACTORS
330
2B365
102
}
330
2B365
100
AcDbXrecord
340
2B35B
  0
XRECORD
  5
2B36C
102
{ACAD_REACTORS
330
2B365
102
}
330
2B365
100
AcDbXrecord
340
2B358
  0
XRECORD
  5
2B372
102
{ACAD_REACTORS
330
2B365
102
}
330
2B365
100
AcDbXrecord
 40
0.0
  0
XRECORD
  5
2B375
102
{ACAD_REACTORS
330
2B365
102
}
330
2B365
100
AcDbXrecord
340
0
  0
XRECORD
  5
2B37B
102
{ACAD_REACTORS
330
2B365
102
}
330
2B365
100
AcDbXrecord
 10
0.0
 20
0.0
 30
0.0
  0
XRECORD
  5
2B377
102
{ACAD_REACTORS
330
2B365
102
}
330
2B365
100
AcDbXrecord
 10
0.0
 20
0.0
 30
0.0
  0
XRECORD
  5
2B37A
102
{ACAD_REACTORS
330
2B365
102
}
330
2B365
100
AcDbXrecord
 10
0.0
 20
0.0
 30
0.0
  0
XRECORD
  5
2B378
102
{ACAD_REACTORS
330
2B365
102
}
330
2B365
100
AcDbXrecord
 10
0.0
 20
0.0
 30
0.0
  0
XRECORD
  5
2B379
102
{ACAD_REACTORS
330
2B365
102
}
330
2B365
100
AcDbXrecord
 10
0.0
 20
0.0
 30
0.0
  0
XRECORD
  5
2B376
102
{ACAD_REACTORS
330
2B365
102
}
330
2B365
100
AcDbXrecord
 10
0.0
 20
0.0
 30
0.0
  0
XRECORD
  5
2B373
102
{ACAD_REACTORS
330
2B365
102
}
330
2B365
100
AcDbXrecord
340
0
  0
XRECORD
  5
2B374
102
{ACAD_REACTORS
330
2B365
102
}
330
2B365
100
AcDbXrecord
 70
     0
  0
XRECORD
  5
2B369
102
{ACAD_REACTORS
330
2B365
102
}
330
2B365
100
AcDbXrecord
  1

  0
XRECORD
  5
2B366
102
{ACAD_REACTORS
330
2B365
102
}
330
2B365
100
AcDbXrecord
 90
        1
  0
XRECORD
  5
2B367
102
{ACAD_REACTORS
330
2B365
102
}
330
2B365
100
AcDbXrecord
 90
       70
  0
XRECORD
  5
2B37E
102
{ACAD_REACTORS
330
2B365
102
}
330
2B365
100
AcDbXrecord
340
0
  0
XRECORD
  5
2B384
102
{ACAD_REACTORS
330
2B365
102
}
330
2B365
100
AcDbXrecord
 10
0.0
 20
0.0
 30
0.0
  0
XRECORD
  5
2B380
102
{ACAD_REACTORS
330
2B365
102
}
330
2B365
100
AcDbXrecord
 10
0.0
 20
0.0
 30
0.0
  0
XRECORD
  5
2B383
102
{ACAD_REACTORS
330
2B365
102
}
330
2B365
100
AcDbXrecord
 10
0.0
 20
0.0
 30
0.0
  0
XRECORD
  5
2B381
102
{ACAD_REACTORS
330
2B365
102
}
330
2B365
100
AcDbXrecord
 10
0.0
 20
0.0
 30
0.0
  0
XRECORD
  5
2B382
102
{ACAD_REACTORS
330
2B365
102
}
330
2B365
100
AcDbXrecord
 10
0.0
 20
0.0
 30
0.0
  0
XRECORD
  5
2B37F
102
{ACAD_REACTORS
330
2B365
102
}
330
2B365
100
AcDbXrecord
 10
0.0
 20
0.0
 30
0.0
  0
XRECORD
  5
2B37C
102
{ACAD_REACTORS
330
2B365
102
}
330
2B365
100
AcDbXrecord
340
0
  0
XRECORD
  5
2B37D
102
{ACAD_REACTORS
330
2B365
102
}
330
2B365
100
AcDbXrecord
 70
     0
  0
XRECORD
  5
2B371
102
{ACAD_REACTORS
330
2B365
102
}
330
2B365
100
AcDbXrecord
  1
{58BFF6D2-8DB3-11D6-88E6-0090279574E7}
  0
DICTIONARYVAR
  5
2B363
102
{ACAD_REACTORS
330
2B362
102
}
330
2B362
100
DictionaryVariables
280
     0
  1
1
  0
ENDSEC
  0
EOF
