  0
SECTION
  2
HEADER
  9
$ACADVER
  1
AC1014
  9
$ACADMAINTVER
 70
     9
  9
$DWGCODEPAGE
  3
ANSI_1252
  9
$INSBASE
 10
1.438482496780891
 20
1.327976578314796
 30
0.0
  9
$EXTMIN
 10
-0.3044990824462515
 20
0.5418329742322154
 30
0.0
  9
$EXTMAX
 10
3.180720239300875
 20
2.140476578314797
 30
0.0
  9
$LIMMIN
 10
0.0
 20
0.0
  9
$LIMMAX
 10
18.0
 20
12.0
  9
$ORTHOMODE
 70
     1
  9
$REGENMODE
 70
     1
  9
$FILLMODE
 70
     1
  9
$QTEXTMODE
 70
     0
  9
$MIRRTEXT
 70
     0
  9
$DRAGMODE
 70
     2
  9
$LTSCALE
 40
1.0
  9
$OSMODE
 70
    39
  9
$ATTMODE
 70
     1
  9
$TEXTSIZE
 40
0.125
  9
$TRACEWID
 40
0.05
  9
$TEXTSTYLE
  7
ROMANS
  9
$CLAYER
  8
0
  9
$CELTYPE
  6
BYLAYER
  9
$CECOLOR
 62
   256
  9
$CELTSCALE
 40
1.0
  9
$DELOBJ
 70
     1
  9
$DISPSILH
 70
     1
  9
$DIMSCALE
 40
1.0
  9
$DIMASZ
 40
0.125
  9
$DIMEXO
 40
0.125
  9
$DIMDLI
 40
0.375
  9
$DIMRND
 40
0.0
  9
$DIMDLE
 40
0.0
  9
$DIMEXE
 40
0.125
  9
$DIMTP
 40
0.0
  9
$DIMTM
 40
0.0
  9
$DIMTXT
 40
0.125
  9
$DIMCEN
 40
-0.125
  9
$DIMTSZ
 40
0.0
  9
$DIMTOL
 70
     0
  9
$DIMLIM
 70
     0
  9
$DIMTIH
 70
     1
  9
$DIMTOH
 70
     1
  9
$DIMSE1
 70
     0
  9
$DIMSE2
 70
     0
  9
$DIMTAD
 70
     0
  9
$DIMZIN
 70
     4
  9
$DIMBLK
  1

  9
$DIMASO
 70
     1
  9
$DIMSHO
 70
     1
  9
$DIMPOST
  1

  9
$DIMAPOST
  1

  9
$DIMALT
 70
     0
  9
$DIMALTD
 70
     2
  9
$DIMALTF
 40
25.4
  9
$DIMLFAC
 40
1.0
  9
$DIMTOFL
 70
     0
  9
$DIMTVP
 40
0.0
  9
$DIMTIX
 70
     1
  9
$DIMSOXD
 70
     0
  9
$DIMSAH
 70
     0
  9
$DIMBLK1
  1

  9
$DIMBLK2
  1

  9
$DIMSTYLE
  2
STANDARD
  9
$DIMCLRD
 70
     0
  9
$DIMCLRE
 70
     0
  9
$DIMCLRT
 70
     0
  9
$DIMTFAC
 40
1.0
  9
$DIMGAP
 40
0.09
  9
$DIMJUST
 70
     0
  9
$DIMSD1
 70
     0
  9
$DIMSD2
 70
     0
  9
$DIMTOLJ
 70
     1
  9
$DIMTZIN
 70
     4
  9
$DIMALTZ
 70
     0
  9
$DIMALTTZ
 70
     0
  9
$DIMFIT
 70
     3
  9
$DIMUPT
 70
     0
  9
$DIMUNIT
 70
     2
  9
$DIMDEC
 70
     3
  9
$DIMTDEC
 70
     3
  9
$DIMALTU
 70
     2
  9
$DIMALTTD
 70
     2
  9
$DIMTXSTY
  7
ROMANS
  9
$DIMAUNIT
 70
     0
  9
$LUNITS
 70
     2
  9
$LUPREC
 70
     3
  9
$SKETCHINC
 40
0.1
  9
$FILLETRAD
 40
0.03125
  9
$AUNITS
 70
     0
  9
$AUPREC
 70
     0
  9
$MENU
  1
ACAD
  9
$ELEVATION
 40
0.0
  9
$PELEVATION
 40
0.0
  9
$THICKNESS
 40
0.0
  9
$LIMCHECK
 70
     0
  9
$BLIPMODE
 70
     0
  9
$CHAMFERA
 40
0.0
  9
$CHAMFERB
 40
0.0
  9
$CHAMFERC
 40
0.0
  9
$CHAMFERD
 40
0.0
  9
$SKPOLY
 70
     0
  9
$TDCREATE
 40
2448993.352836458
  9
$TDUPDATE
 40
2452458.292196979
  9
$TDINDWG
 40
0.0011680324
  9
$TDUSRTIMER
 40
0.0011680324
  9
$USRTIMER
 70
     1
  9
$ANGBASE
 50
0.0
  9
$ANGDIR
 70
     0
  9
$PDMODE
 70
     0
  9
$PDSIZE
 40
0.0
  9
$PLINEWID
 40
0.0
  9
$COORDS
 70
     2
  9
$SPLFRAME
 70
     0
  9
$SPLINETYPE
 70
     6
  9
$SPLINESEGS
 70
     8
  9
$ATTDIA
 70
     0
  9
$ATTREQ
 70
     1
  9
$HANDLING
 70
 22529
  9
$HANDSEED
  5
BD6B
  9
$SURFTAB1
 70
     6
  9
$SURFTAB2
 70
     6
  9
$SURFTYPE
 70
     6
  9
$SURFU
 70
     6
  9
$SURFV
 70
     6
  9
$UCSNAME
  2

  9
$UCSORG
 10
0.0
 20
0.0
 30
0.0
  9
$UCSXDIR
 10
1.0
 20
0.0
 30
0.0
  9
$UCSYDIR
 10
0.0
 20
1.0
 30
0.0
  9
$PUCSNAME
  2

  9
$PUCSORG
 10
0.0
 20
0.0
 30
0.0
  9
$PUCSXDIR
 10
1.0
 20
0.0
 30
0.0
  9
$PUCSYDIR
 10
0.0
 20
1.0
 30
0.0
  9
$USERI1
 70
     0
  9
$USERI2
 70
     0
  9
$USERI3
 70
     0
  9
$USERI4
 70
     0
  9
$USERI5
 70
     0
  9
$USERR1
 40
0.0
  9
$USERR2
 40
0.0
  9
$USERR3
 40
0.0
  9
$USERR4
 40
0.0
  9
$USERR5
 40
0.0
  9
$WORLDVIEW
 70
     1
  9
$SHADEDGE
 70
     3
  9
$SHADEDIF
 70
    70
  9
$TILEMODE
 70
     1
  9
$MAXACTVP
 70
    16
  9
$PINSBASE
 10
1.203456048902086
 20
50.00000000000001
 30
0.7652438792326168
  9
$PLIMCHECK
 70
     0
  9
$PEXTMIN
 10
1.000000000000000E+20
 20
1.000000000000000E+20
 30
1.000000000000000E+20
  9
$PEXTMAX
 10
-1.000000000000000E+20
 20
-1.000000000000000E+20
 30
-1.000000000000000E+20
  9
$PLIMMIN
 10
0.0
 20
0.0
  9
$PLIMMAX
 10
12.0
 20
9.0
  9
$UNITMODE
 70
     0
  9
$VISRETAIN
 70
     0
  9
$PLINEGEN
 70
     1
  9
$PSLTSCALE
 70
     0
  9
$TREEDEPTH
 70
  3020
  9
$PICKSTYLE
 70
     1
  9
$CMLSTYLE
  2
STANDARD
  9
$CMLJUST
 70
     0
  9
$CMLSCALE
 40
1.0
  9
$PROXYGRAPHICS
 70
     1
  9
$MEASUREMENT
 70
     0
  0
ENDSEC
  0
SECTION
  2
CLASSES
  0
CLASS
  1
LWPOLYLINE
  2
AcDbPolyline
  3
AutoCAD 2000
 90
        0
280
     0
281
     1
  0
CLASS
  1
ACDBDICTIONARYWDFLT
  2
AcDbDictionaryWithDefault
  3
AutoCAD 2000
 90
        0
280
     0
281
     0
  0
CLASS
  1
ACDBPLACEHOLDER
  2
AcDbPlaceHolder
  3
AutoCAD 2000
 90
        0
280
     0
281
     0
  0
CLASS
  1
LAYOUT
  2
AcDbLayout
  3
AutoCAD 2000
 90
        0
280
     0
281
     0
  0
CLASS
  1
DICTIONARYVAR
  2
AcDbDictionaryVar
  3
AutoCAD 2000
 90
        0
280
     0
281
     0
  0
CLASS
  1
LONG_TRANSACTION
  2
AcDbLongTransaction
  3
AutoCAD 2000
 90
        0
280
     0
281
     0
  0
CLASS
  1
LWPOLYLINE
  2
AcDbPolyline
  3
AutoCAD 2000
 90
        0
280
     0
281
     1
  0
CLASS
  1
HATCH
  2
AcDbHatch
  3
AutoCAD 2000
 90
        0
280
     0
281
     1
  0
CLASS
  1
XRECORD
  2
AcDbXrecord
  3
AutoCAD 2000
 90
        0
280
     0
281
     0
  0
ENDSEC
  0
SECTION
  2
TABLES
  0
TABLE
  2
VPORT
  5
BD12
330
0
100
AcDbSymbolTable
 70
     2
  0
VPORT
  5
BD46
330
BD12
100
AcDbSymbolTableRecord
100
AcDbViewportTableRecord
  2
*ACTIVE
 70
     0
 10
0.0
 20
0.0
 11
1.0
 21
1.0
 12
4.415119177326591
 22
1.341339133844407
 13
0.0
 23
0.0
 14
0.015625
 24
0.015625
 15
0.0
 25
0.0
 16
0.0
 26
0.0
 36
1.0
 17
0.0
 27
0.0
 37
0.0
 40
2.282863692750321
 41
4.320930232558139
 42
50.0
 43
0.0
 44
0.0
 50
0.0
 51
0.0
 71
     0
 72
  2000
 73
     1
 74
     0
 75
     1
 76
     0
 77
     0
 78
     0
  0
ENDTAB
  0
TABLE
  2
LTYPE
  5
BD0F
330
0
100
AcDbSymbolTable
 70
     1
  0
LTYPE
  5
BD1C
330
BD0F
100
AcDbSymbolTableRecord
100
AcDbLinetypeTableRecord
  2
BYBLOCK
 70
     0
  3

 72
    65
 73
     0
 40
0.0
  0
LTYPE
  5
BD1D
330
BD0F
100
AcDbSymbolTableRecord
100
AcDbLinetypeTableRecord
  2
BYLAYER
 70
     0
  3

 72
    65
 73
     0
 40
0.0
  0
LTYPE
  5
BD1E
330
BD0F
100
AcDbSymbolTableRecord
100
AcDbLinetypeTableRecord
  2
CONTINUOUS
 70
     0
  3
Solid line
 72
    65
 73
     0
 40
0.0
  0
ENDTAB
  0
TABLE
  2
LAYER
  5
BD0C
330
0
100
AcDbSymbolTable
 70
     2
  0
LAYER
  5
BD19
330
BD0C
100
AcDbSymbolTableRecord
100
AcDbLayerTableRecord
  2
0
 70
     0
 62
     7
  6
CONTINUOUS
  0
LAYER
  5
BD29
330
BD0C
100
AcDbSymbolTableRecord
100
AcDbLayerTableRecord
  2
TEXT
 70
     0
 62
     3
  6
CONTINUOUS
  0
ENDTAB
  0
TABLE
  2
STYLE
  5
BD0D
330
0
100
AcDbSymbolTable
 70
     3
  0
STYLE
  5
BD1A
330
BD0D
100
AcDbSymbolTableRecord
100
AcDbTextStyleTableRecord
  2
STANDARD
 70
     0
 40
0.0
 41
1.0
 50
0.0
 71
     0
 42
0.3125
  3
txt
  4

  0
STYLE
  5
BD26
330
BD0D
100
AcDbSymbolTableRecord
100
AcDbTextStyleTableRecord
  2
ITALICC
 70
     0
 40
0.0
 41
1.0
 50
0.0
 71
     0
 42
0.125
  3
italicc
  4

  0
STYLE
  5
BD36
330
BD0D
100
AcDbSymbolTableRecord
100
AcDbTextStyleTableRecord
  2
ROMANS
 70
     0
 40
0.0
 41
1.0
 50
0.0
 71
     0
 42
0.125
  3
romans.shx
  4

  0
ENDTAB
  0
TABLE
  2
VIEW
  5
BD10
330
0
100
AcDbSymbolTable
 70
     0
  0
ENDTAB
  0
TABLE
  2
UCS
  5
BD11
330
0
100
AcDbSymbolTable
 70
     0
  0
ENDTAB
  0
TABLE
  2
APPID
  5
BD13
330
0
100
AcDbSymbolTable
 70
     1
  0
APPID
  5
BD1B
330
BD13
100
AcDbSymbolTableRecord
100
AcDbRegAppTableRecord
  2
ACAD
 70
     0
  0
ENDTAB
  0
TABLE
  2
DIMSTYLE
  5
BD14
330
0
100
AcDbSymbolTable
 70
     1
  0
DIMSTYLE
105
BD2E
330
BD14
100
AcDbSymbolTableRecord
100
AcDbDimStyleTableRecord
  2
STANDARD
 70
     0
  3

  4

  5

  6

  7

 40
1.0
 41
0.125
 42
0.125
 43
0.375
 44
0.125
 45
0.0
 46
0.0
 47
0.0
 48
0.0
140
0.125
141
-0.125
142
0.0
143
25.4
144
1.0
145
0.0
146
1.0
147
0.09
 71
     0
 72
     0
 73
     1
 74
     1
 75
     0
 76
     0
 77
     0
 78
     4
170
     0
171
     2
172
     0
173
     0
174
     1
175
     0
176
     0
177
     0
178
     0
270
     2
271
     3
272
     3
273
     2
274
     2
340
BD36
275
     0
280
     0
281
     0
282
     0
283
     1
284
     4
285
     0
286
     0
287
     3
288
     0
  0
ENDTAB
  0
TABLE
  2
BLOCK_RECORD
  5
BD0B
330
0
100
AcDbSymbolTable
 70
     0
  0
BLOCK_RECORD
  5
BD22
102
{ACAD_XDICTIONARY
360
BD69
102
}
330
BD0B
100
AcDbSymbolTableRecord
100
AcDbBlockTableRecord
  2
*MODEL_SPACE
  0
BLOCK_RECORD
  5
BD1F
102
{ACAD_XDICTIONARY
360
BD67
102
}
330
BD0B
100
AcDbSymbolTableRecord
100
AcDbBlockTableRecord
  2
*PAPER_SPACE
  0
ENDTAB
  0
ENDSEC
  0
SECTION
  2
BLOCKS
  0
BLOCK
  5
BD2C
330
BD22
100
AcDbEntity
  8
0
100
AcDbBlockBegin
  2
*MODEL_SPACE
 70
     0
 10
0.0
 20
0.0
 30
0.0
  3
*MODEL_SPACE
  1

  0
ENDBLK
  5
BD2D
330
BD22
100
AcDbEntity
  8
0
100
AcDbBlockEnd
  0
BLOCK
  5
BD2A
330
BD1F
100
AcDbEntity
 67
     1
  8
0
100
AcDbBlockBegin
  2
*PAPER_SPACE
 70
     0
 10
0.0
 20
0.0
 30
0.0
  3
*PAPER_SPACE
  1

  0
ENDBLK
  5
BD2B
330
BD1F
100
AcDbEntity
 67
     1
  8
0
100
AcDbBlockEnd
  0
ENDSEC
  0
SECTION
  2
ENTITIES
  0
LWPOLYLINE
  5
A366
330
BD22
100
AcDbEntity
  8
0
100
AcDbPolyline
 90
       14
 70
     1
 43
0.0
 10
1.933482496780891
 20
1.387976578314797
 42
-1.0
 10
1.933482496780891
 20
1.327976578314796
 10
0.9434824967808918
 20
1.327976578314796
 42
-1.0
 10
0.9434824967808918
 20
1.387976578314797
 10
1.151482496780891
 20
1.387976578314797
 10
1.161482496780891
 20
1.377976578314797
 10
1.171482496780892
 20
1.387976578314797
 10
1.408482496780892
 20
1.387976578314797
 10
1.408482496780891
 20
2.110476578314797
 42
-1.0
 10
1.468482496780891
 20
2.110476578314797
 10
1.468482496780891
 20
1.387976578314797
 10
1.705482496780891
 20
1.387976578314797
 10
1.715482496780891
 20
1.377976578314797
 10
1.725482496780891
 20
1.387976578314797
  0
TEXT
  5
BBCD
330
BD22
100
AcDbEntity
  8
TEXT
100
AcDbText
 10
0.6855063063047013
 20
0.9998515783147968
 30
0.0
 40
0.125
  1
PART #110018
  7
ITALICC
 72
     1
 11
1.438482496780891
 21
0.9998515783147968
 31
0.0
100
AcDbText
  0
TEXT
  5
BBCE
330
BD22
100
AcDbEntity
  8
TEXT
100
AcDbText
 10
1.851787655031212
 20
0.5529289356424219
 30
0.0
 40
0.0522247191011236
  1
Phone  1-800-328-2495
 41
1.272321428571429
 72
     5
 11
3.180720239300875
 21
0.5529289356424219
 31
0.0
100
AcDbText
  0
TEXT
  5
BBCF
330
BD22
100
AcDbEntity
  8
TEXT
100
AcDbText
 10
1.851787655031212
 20
0.8327042165412983
 30
0.0
 40
0.0522247191011236
  1
Stylmark  Incorporated
 41
1.221428571428572
 72
     5
 11
3.180720239300875
 21
0.8327042165412983
 31
0.0
100
AcDbText
  0
TEXT
  5
BBD0
330
BD22
100
AcDbEntity
  8
TEXT
100
AcDbText
 10
1.851787655031212
 20
0.7394457895750062
 30
0.0
 40
0.0522247191011236
  1
6536 Main St. N.E. * P.O. Box 32008
 41
0.8388932496075364
 72
     5
 11
3.180720239300875
 21
0.7394457895750062
 31
0.0
100
AcDbText
  0
TEXT
  5
BBD1
330
BD22
100
AcDbEntity
  8
TEXT
100
AcDbText
 10
1.851787655031212
 20
0.646187362608714
 30
0.0
 40
0.0522247191011236
  1
Minneapolis, MN 55432-0008
 41
1.11444212721585
 72
     5
 11
3.180720239300875
 21
0.646187362608714
 31
0.0
100
AcDbText
  0
LWPOLYLINE
  5
BBD2
330
BD22
100
AcDbEntity
  8
TEXT
100
AcDbPolyline
 90
        3
 70
     0
 43
0.0006660908203125
 10
-0.3041660370360952
 20
0.6665736982798567
 10
-0.3041660370360952
 20
0.5533382588267291
 10
-0.1909305975829729
 20
0.5533382588267291
  0
LWPOLYLINE
  5
BBD7
330
BD22
100
AcDbEntity
  8
TEXT
100
AcDbPolyline
 90
        3
 70
     0
 43
0.0006660908203125
 10
-0.2775224042235977
 20
0.6665736982798567
 10
-0.2775224042235977
 20
0.5799818916392301
 10
-0.1909305975829729
 20
0.5799818916392301
  0
LWPOLYLINE
  5
BBDC
330
BD22
100
AcDbEntity
  8
TEXT
100
AcDbPolyline
 90
        2
 70
     0
 43
0.0001332181640625
 10
-0.2308960468017209
 20
0.6765650605845419
 10
-0.3041660370360952
 20
0.6665736982798567
  0
LWPOLYLINE
  5
BBE0
330
BD22
100
AcDbEntity
  8
TEXT
100
AcDbPolyline
 90
        2
 70
     0
 43
0.0001332181640625
 10
-0.2775224042235977
 20
0.6665736982798567
 10
-0.2175742303954704
 20
0.6765650605845419
  0
LWPOLYLINE
  5
BBE4
330
BD22
100
AcDbEntity
  8
TEXT
100
AcDbPolyline
 90
        2
 70
     0
 43
0.0001332181640625
 10
-0.2775224042235977
 20
0.5799818916392301
 10
-0.2175742303954704
 20
0.6399300654673557
  0
LWPOLYLINE
  5
BBE8
330
BD22
100
AcDbEntity
  8
TEXT
100
AcDbPolyline
 90
        3
 70
     0
 43
0.0006660908203125
 10
-0.1909305975829729
 20
0.8197745869517323
 10
-0.3041660370360952
 20
0.8197745869517323
 10
-0.3041660370360952
 20
0.7065391474986047
  0
LWPOLYLINE
  5
BBED
330
BD22
100
AcDbEntity
  8
TEXT
100
AcDbPolyline
 90
        3
 70
     0
 43
0.0006660908203125
 10
-0.1909305975829729
 20
0.7931309541392313
 10
-0.2775224042235977
 20
0.7931309541392313
 10
-0.2775224042235977
 20
0.7065391474986047
  0
LWPOLYLINE
  5
BBF2
330
BD22
100
AcDbEntity
  8
TEXT
100
AcDbPolyline
 90
        2
 70
     0
 43
0.0001332181640625
 10
-0.2775224042235977
 20
0.7931309541392313
 10
-0.2175742303954722
 20
0.7331827803111058
  0
LWPOLYLINE
  5
BBF6
330
BD22
100
AcDbEntity
  8
TEXT
100
AcDbPolyline
 90
        2
 70
     0
 43
0.0001332181640625
 10
-0.2775224042235977
 20
0.7065391474986047
 10
-0.2175742303954722
 20
0.696547785193916
  0
LWPOLYLINE
  5
BBFA
330
BD22
100
AcDbEntity
  8
TEXT
100
AcDbPolyline
 90
        2
 70
     0
 43
0.0001332181640625
 10
-0.3041660370360952
 20
0.7065391474986047
 10
-0.2308960468017209
 20
0.696547785193916
  0
LWPOLYLINE
  5
BBFE
330
BD22
100
AcDbEntity
  8
TEXT
100
AcDbPolyline
 90
        2
 70
     0
 43
0.0006660908203125
 10
-0.2775224042235977
 20
0.6665736982798567
 10
-0.3041660370360952
 20
0.6665736982798567
  0
LWPOLYLINE
  5
BC02
330
BD22
100
AcDbEntity
  8
TEXT
100
AcDbPolyline
 90
        2
 70
     0
 43
0.0006660908203125
 10
-0.2775224042235977
 20
0.7065391474986047
 10
-0.3041660370360952
 20
0.7065391474986047
  0
LINE
  5
BC06
330
BD22
100
AcDbEntity
  8
TEXT
100
AcDbLine
 10
1.211024392090402
 20
0.7554978922949634
 30
0.0
 11
1.103818118703112
 21
0.7554978922949634
 31
0.0
  0
LINE
  5
BC07
330
BD22
100
AcDbEntity
  8
TEXT
100
AcDbLine
 10
1.24005529043488
 20
0.8197745869517287
 30
0.0
 11
1.105223381217821
 21
0.8197745869517287
 31
0.0
  0
ARC
  5
BC08
330
BD22
100
AcDbEntity
  8
TEXT
100
AcDbCircle
 10
1.164537477611138
 20
0.6505373376887125
 30
0.0
 40
0.0676855811441166
100
AcDbArc
 50
90.0
 51
153.7768192527749
  0
LWPOLYLINE
  5
BC09
330
BD22
100
AcDbEntity
  8
TEXT
100
AcDbPolyline
 90
        2
 70
     0
 43
0.0
 10
1.102785623248302
 20
0.596792498913656
 42
0.2901071551932823
 10
1.145861556115938
 20
0.5533015539632178
 42
5.328517124445801
  0
ARC
  5
BC0D
330
BD22
100
AcDbEntity
  8
TEXT
100
AcDbCircle
 10
0.4594060999396528
 20
0.6130939453012676
 30
0.0
 40
0.0601160179737537
100
AcDbArc
 50
180.0000000000003
 51
264.0521544866073
  0
LINE
  5
BC0E
330
BD22
100
AcDbEntity
  8
TEXT
100
AcDbLine
 10
0.4629214555652006
 20
0.8541625045458669
 30
0.0
 11
0.4028788507211936
 21
0.8541625045458669
 31
0.0
  0
ARC
  5
BC0F
330
BD22
100
AcDbEntity
  8
TEXT
100
AcDbCircle
 10
0.2271470978226822
 20
0.7376871275052271
 30
0.0
 40
0.0820874594465043
100
AcDbArc
 50
90.0
 51
270.0
  0
LWPOLYLINE
  5
BC10
330
BD22
100
AcDbEntity
  8
TEXT
100
AcDbPolyline
 90
        2
 70
     0
 43
0.0001332181640625
 10
-0.1809392352782824
 20
0.7465045967173527
 10
-0.1909305975829729
 20
0.8197745869517323
  0
LWPOLYLINE
  5
BC14
330
BD22
100
AcDbEntity
  8
TEXT
100
AcDbPolyline
 90
        2
 70
     0
 43
0.0001332181640625
 10
-0.1909305975829729
 20
0.7931309541392313
 10
-0.1809392352782824
 20
0.7331827803111058
  0
LWPOLYLINE
  5
BC18
330
BD22
100
AcDbEntity
  8
TEXT
100
AcDbPolyline
 90
        3
 70
     0
 43
0.0006660908203125
 10
-0.0377297089110955
 20
0.7065391474986047
 10
-0.0377297089110955
 20
0.8197745869517323
 10
-0.1509651483642214
 20
0.8197745869517323
  0
LWPOLYLINE
  5
BC1D
330
BD22
100
AcDbEntity
  8
TEXT
100
AcDbPolyline
 90
        3
 70
     0
 43
0.0006660908203125
 10
-0.0643733417235966
 20
0.7065391474986047
 10
-0.0643733417235966
 20
0.7931309541392313
 10
-0.1509651483642214
 20
0.7931309541392313
  0
LWPOLYLINE
  5
BC22
330
BD22
100
AcDbEntity
  8
TEXT
100
AcDbPolyline
 90
        2
 70
     0
 43
0.0001332181640625
 10
-0.0643733417235966
 20
0.7931309541392313
 10
-0.1243215155517203
 20
0.7331827803111058
  0
LWPOLYLINE
  5
BC26
330
BD22
100
AcDbEntity
  8
TEXT
100
AcDbPolyline
 90
        2
 70
     0
 43
0.0001332181640625
 10
-0.1509651483642214
 20
0.7931309541392313
 10
-0.1609565106689101
 20
0.7331827803111058
  0
LWPOLYLINE
  5
BC2A
330
BD22
100
AcDbEntity
  8
TEXT
100
AcDbPolyline
 90
        2
 70
     0
 43
0.0001332181640625
 10
-0.1509651483642214
 20
0.8197745869517323
 10
-0.1609565106689101
 20
0.7465045967173527
  0
LWPOLYLINE
  5
BC2E
330
BD22
100
AcDbEntity
  8
TEXT
100
AcDbPolyline
 90
        2
 70
     0
 43
0.0001332181640625
 10
-0.1109996991454716
 20
0.696547785193916
 10
-0.0377297089110955
 20
0.7065391474986047
  0
LWPOLYLINE
  5
BC32
330
BD22
100
AcDbEntity
  8
TEXT
100
AcDbPolyline
 90
        2
 70
     0
 43
0.0001332181640625
 10
-0.0643733417235966
 20
0.7065391474986047
 10
-0.1243215155517203
 20
0.696547785193916
  0
LWPOLYLINE
  5
BC36
330
BD22
100
AcDbEntity
  8
TEXT
100
AcDbPolyline
 90
        2
 70
     0
 43
0.0001332181640625
 10
-0.0377297089110955
 20
0.6665736982798567
 10
-0.1109996991454716
 20
0.6765650605845419
  0
LWPOLYLINE
  5
BC3A
330
BD22
100
AcDbEntity
  8
TEXT
100
AcDbPolyline
 90
        2
 70
     0
 43
0.0001332181640625
 10
-0.0643733417235966
 20
0.6665736982798567
 10
-0.1243215155517203
 20
0.6765650605845419
  0
LWPOLYLINE
  5
BC3E
330
BD22
100
AcDbEntity
  8
TEXT
100
AcDbPolyline
 90
        2
 70
     0
 43
0.0001332181640625
 10
-0.0643733417235966
 20
0.5799818916392301
 10
-0.1243215155517203
 20
0.6399300654673557
  0
LWPOLYLINE
  5
BC42
330
BD22
100
AcDbEntity
  8
TEXT
100
AcDbPolyline
 90
        3
 70
     0
 43
0.0006660908203125
 10
-0.1509651483642214
 20
0.5799818916392301
 10
-0.0643733417235966
 20
0.5799818916392301
 10
-0.0643733417235966
 20
0.6665736982798567
  0
LWPOLYLINE
  5
BC47
330
BD22
100
AcDbEntity
  8
TEXT
100
AcDbPolyline
 90
        3
 70
     0
 43
0.0006660908203125
 10
-0.1509651483642214
 20
0.5533382588267291
 10
-0.0377297089110955
 20
0.5533382588267291
 10
-0.0377297089110955
 20
0.6665736982798567
  0
LWPOLYLINE
  5
BC4C
330
BD22
100
AcDbEntity
  8
TEXT
100
AcDbPolyline
 90
        5
 70
     0
 43
0.0001332181640625
 10
-0.1809392352782824
 20
0.6266082490611052
 10
-0.1809392352782824
 20
0.6399300654673557
 10
-0.2175742303954704
 20
0.6399300654673557
 10
-0.2175742303954704
 20
0.6765650605845419
 10
-0.2308960468017209
 20
0.6765650605845419
  0
LWPOLYLINE
  5
BC53
330
BD22
100
AcDbEntity
  8
TEXT
100
AcDbPolyline
 90
        2
 70
     0
 43
0.0006660908203125
 10
-0.1909305975829729
 20
0.5799818916392301
 10
-0.1909305975829729
 20
0.5533382588267291
  0
LWPOLYLINE
  5
BC57
330
BD22
100
AcDbEntity
  8
TEXT
100
AcDbPolyline
 90
        2
 70
     0
 43
0.0001332181640625
 10
-0.1909305975829729
 20
0.5799818916392301
 10
-0.1809392352782824
 20
0.6399300654673557
  0
LWPOLYLINE
  5
BC5B
330
BD22
100
AcDbEntity
  8
TEXT
100
AcDbPolyline
 90
        2
 70
     0
 43
0.0001332181640625
 10
-0.1909305975829729
 20
0.5533382588267291
 10
-0.1809392352782824
 20
0.6266082490611052
  0
LWPOLYLINE
  5
BC5F
330
BD22
100
AcDbEntity
  8
TEXT
100
AcDbPolyline
 90
        5
 70
     0
 43
0.0001332181640625
 10
-0.2308960468017209
 20
0.696547785193916
 10
-0.2175742303954722
 20
0.696547785193916
 10
-0.2175742303954722
 20
0.7331827803111058
 10
-0.1809392352782824
 20
0.7331827803111058
 10
-0.1809392352782824
 20
0.7465045967173527
  0
LWPOLYLINE
  5
BC66
330
BD22
100
AcDbEntity
  8
TEXT
100
AcDbPolyline
 90
        5
 70
     0
 43
0.0001332181640625
 10
-0.1609565106689101
 20
0.7465045967173527
 10
-0.1609565106689101
 20
0.7331827803111058
 10
-0.1243215155517203
 20
0.7331827803111058
 10
-0.1243215155517203
 20
0.696547785193916
 10
-0.1109996991454716
 20
0.696547785193916
  0
LWPOLYLINE
  5
BC6D
330
BD22
100
AcDbEntity
  8
TEXT
100
AcDbPolyline
 90
        2
 70
     0
 43
0.0001332181640625
 10
-0.1509651483642214
 20
0.5799818916392301
 10
-0.1609565106689101
 20
0.6399300654673557
  0
LWPOLYLINE
  5
BC71
330
BD22
100
AcDbEntity
  8
TEXT
100
AcDbPolyline
 90
        2
 70
     0
 43
0.0001332181640625
 10
-0.1609565106689101
 20
0.6266082490611052
 10
-0.1509651483642214
 20
0.5533382588267291
  0
LWPOLYLINE
  5
BC75
330
BD22
100
AcDbEntity
  8
TEXT
100
AcDbPolyline
 90
        2
 70
     0
 43
0.0006660908203125
 10
-0.1509651483642214
 20
0.5799818916392301
 10
-0.1509651483642214
 20
0.5533382588267291
  0
LWPOLYLINE
  5
BC79
330
BD22
100
AcDbEntity
  8
TEXT
100
AcDbPolyline
 90
        5
 70
     0
 43
0.0001332181640625
 10
-0.1109996991454716
 20
0.6765650605845419
 10
-0.1243215155517203
 20
0.6765650605845419
 10
-0.1243215155517203
 20
0.6399300654673557
 10
-0.1609565106689101
 20
0.6399300654673557
 10
-0.1609565106689101
 20
0.6266082490611052
  0
LWPOLYLINE
  5
BC80
330
BD22
100
AcDbEntity
  8
TEXT
100
AcDbPolyline
 90
        2
 70
     0
 43
0.0006660908203125
 10
-0.0643733417235966
 20
0.7065391474986047
 10
-0.0377297089110955
 20
0.7065391474986047
  0
LWPOLYLINE
  5
BC84
330
BD22
100
AcDbEntity
  8
TEXT
100
AcDbPolyline
 90
        2
 70
     0
 43
0.0006660908203125
 10
-0.0643733417235966
 20
0.6665736982798567
 10
-0.0377297089110955
 20
0.6665736982798567
  0
LINE
  5
BC88
330
BD22
100
AcDbEntity
  8
TEXT
100
AcDbLine
 10
0.2323844279369294
 20
0.7554978922949634
 30
0.0
 11
0.3992900819659007
 21
0.7554978922949634
 31
0.0
  0
LINE
  5
BC89
330
BD22
100
AcDbEntity
  8
TEXT
100
AcDbLine
 10
0.2979845641812304
 20
0.7196931706843355
 30
0.0
 11
0.2323844279369294
 21
0.7196931706843355
 31
0.0
  0
LINE
  5
BC8A
330
BD22
100
AcDbEntity
  8
TEXT
100
AcDbLine
 10
0.1450596383761777
 20
0.5533015539632178
 30
0.0
 11
0.2979845641812304
 21
0.5533015539632178
 31
0.0
  0
LINE
  5
BC8B
330
BD22
100
AcDbEntity
  8
TEXT
100
AcDbLine
 10
0.3029249380875101
 20
0.6216585602966572
 30
0.0
 11
0.145059638376176
 21
0.6216585602966572
 31
0.0
  0
LINE
  5
BC8C
330
BD22
100
AcDbEntity
  8
TEXT
100
AcDbLine
 10
0.2271470978226813
 20
0.6555996680587218
 30
0.0
 11
0.3029249380875101
 21
0.6555996680587218
 31
0.0
  0
ARC
  5
BC8D
330
BD22
100
AcDbEntity
  8
TEXT
100
AcDbCircle
 10
0.2323844279369303
 20
0.7375955314896512
 30
0.0
 40
0.017902360805315
100
AcDbArc
 50
90.0
 51
270.0
  0
LINE
  5
BC8E
330
BD22
100
AcDbEntity
  8
TEXT
100
AcDbLine
 10
0.145059638376176
 20
0.6216585602966572
 30
0.0
 11
0.1450596383761777
 21
0.5533015539632178
 31
0.0
  0
LINE
  5
BC8F
330
BD22
100
AcDbEntity
  8
TEXT
100
AcDbLine
 10
0.3992900819659007
 20
0.7554978922949634
 30
0.0
 11
0.3992900819659007
 21
0.6130939453012676
 31
0.0
  0
ARC
  5
BC90
330
BD22
100
AcDbEntity
  8
TEXT
100
AcDbCircle
 10
0.2979845641812313
 20
0.6364973623237749
 30
0.0
 40
0.0831958083605586
100
AcDbArc
 50
270.0
 51
90.0
  0
ARC
  5
BC91
330
BD22
100
AcDbEntity
  8
TEXT
100
AcDbCircle
 10
0.302924938087511
 20
0.6386291141776912
 30
0.0
 40
0.0169705538810321
100
AcDbArc
 50
270.0
 51
90.0
  0
LWPOLYLINE
  5
BC92
330
BD22
100
AcDbEntity
  8
TEXT
100
AcDbPolyline
 90
        2
 70
     0
 43
0.0006660908203125
 10
-0.1909305975829729
 20
0.7931309541392313
 10
-0.1909305975829729
 20
0.8197745869517323
  0
LWPOLYLINE
  5
BC96
330
BD22
100
AcDbEntity
  8
TEXT
100
AcDbPolyline
 90
        2
 70
     0
 43
0.0006660908203125
 10
-0.1509651483642214
 20
0.7931309541392313
 10
-0.1509651483642214
 20
0.8197745869517323
  0
LINE
  5
BC9A
330
BD22
100
AcDbEntity
  8
TEXT
100
AcDbLine
 10
0.4028788507211936
 20
0.8197745869517287
 30
0.0
 11
0.2271470978226813
 21
0.8197745869517287
 31
0.0
  0
LINE
  5
BC9B
330
BD22
100
AcDbEntity
  8
TEXT
100
AcDbLine
 10
0.4028788507211936
 20
0.8541625045458669
 30
0.0
 11
0.4028788507211936
 21
0.8197745869517287
 31
0.0
  0
LINE
  5
BC9C
330
BD22
100
AcDbEntity
  8
TEXT
100
AcDbLine
 10
0.5933507427410458
 20
0.7189025908386082
 30
0.0
 11
0.5347204217091079
 21
0.8197745869517287
 31
0.0
  0
LINE
  5
BC9D
330
BD22
100
AcDbEntity
  8
TEXT
100
AcDbLine
 10
0.6520993055469113
 20
0.8197745869517287
 30
0.0
 11
0.5933507427410458
 21
0.7189025908386082
 31
0.0
  0
LINE
  5
BC9E
330
BD22
100
AcDbEntity
  8
TEXT
100
AcDbLine
 10
0.7490299309066526
 20
0.635689392066217
 30
0.0
 11
0.7490299309066526
 21
0.8877860646905393
 31
0.0
  0
LINE
  5
BC9F
330
BD22
100
AcDbEntity
  8
TEXT
100
AcDbLine
 10
0.7813417850443127
 20
0.8197745869517287
 30
0.0
 11
0.7813417850443127
 21
0.6189103802193206
 31
0.0
  0
LINE
  5
BCA0
330
BD22
100
AcDbEntity
  8
TEXT
100
AcDbLine
 10
0.7813417850443127
 20
0.6189103802193206
 30
0.0
 11
0.7643481481597114
 21
0.6189103802193206
 31
0.0
  0
LINE
  5
BCA1
330
BD22
100
AcDbEntity
  8
TEXT
100
AcDbLine
 10
0.7501695044028473
 20
0.5533015539632178
 30
0.0
 11
0.8481728381022819
 21
0.5533015539632178
 31
0.0
  0
LINE
  5
BCA2
330
BD22
100
AcDbEntity
  8
TEXT
100
AcDbLine
 10
0.5837505057440915
 20
0.5732600600682308
 30
0.0
 11
0.6810502118375361
 21
0.7376102710034989
 31
0.0
  0
ARC
  5
BCA3
330
BD22
100
AcDbEntity
  8
TEXT
100
AcDbCircle
 10
0.5497069458318775
 20
0.5928492762369136
 30
0.0
 40
0.0392772371940762
100
AcDbArc
 50
270.1604552698595
 51
330.0831797321295
  0
LINE
  5
BCA4
330
BD22
100
AcDbEntity
  8
TEXT
100
AcDbLine
 10
0.4531766894460063
 20
0.5533015539632178
 30
0.0
 11
0.5498169405210007
 21
0.5535721930615001
 31
0.0
  0
LWPOLYLINE
  5
BCA5
330
BD22
100
AcDbEntity
  8
TEXT
100
AcDbPolyline
 90
        6
 70
     1
 43
0.0
 10
0.4957004930211559
 20
0.7554978922949634
 10
0.4653838988009478
 20
0.7554978922949634
 10
0.4653838988009478
 20
0.632386894240069
 42
0.407328721240804
 10
0.4769275499624241
 20
0.620567979563683
 10
0.5375492490071549
 20
0.620567979563683
 10
0.5550145894144729
 20
0.6533802086071621
  0
LINE
  5
BCAD
330
BD22
100
AcDbEntity
  8
TEXT
100
AcDbLine
 10
0.6810502118375361
 20
0.7376102710034989
 30
0.0
 11
0.6810502118375361
 21
0.6048528961781426
 31
0.0
  0
ARC
  5
BCAE
330
BD22
100
AcDbEntity
  8
TEXT
100
AcDbCircle
 10
0.7643481481597096
 20
0.634292186462746
 30
0.0
 40
0.0153818062434269
100
AcDbArc
 50
174.7883570302258
 51
270.0
  0
LWPOLYLINE
  5
BCAF
330
BD22
100
AcDbEntity
  8
TEXT
100
AcDbPolyline
 90
        2
 70
     0
 43
0.0
 10
0.6810502118375343
 20
0.6048528961781461
 42
0.3318488747599744
 10
0.7501695044028473
 20
0.5533015539632178
 42
-6.868794160588311
  0
LINE
  5
BCB3
330
BD22
100
AcDbEntity
  8
TEXT
100
AcDbLine
 10
0.905561907091543
 20
0.5533015539632178
 30
0.0
 11
0.972619953873383
 21
0.5533015539632178
 31
0.0
  0
LINE
  5
BCB4
330
BD22
100
AcDbEntity
  8
TEXT
100
AcDbLine
 10
0.905561907091543
 20
0.7479441031288534
 30
0.0
 11
0.905561907091543
 21
0.5533015539632178
 31
0.0
  0
LINE
  5
BCB5
330
BD22
100
AcDbEntity
  8
TEXT
100
AcDbLine
 10
0.8481728381022819
 20
0.7554978922949634
 30
0.0
 11
0.8980081179254295
 21
0.7554978922949634
 31
0.0
  0
LINE
  5
BCB6
330
BD22
100
AcDbEntity
  8
TEXT
100
AcDbLine
 10
0.8481728381022819
 20
0.5533015539632178
 30
0.0
 11
0.8481728381022819
 21
0.7554978922949634
 31
0.0
  0
LWPOLYLINE
  5
BCB7
330
BD22
100
AcDbEntity
  8
TEXT
100
AcDbPolyline
 90
        2
 70
     0
 43
0.0
 10
0.8980081179254277
 20
0.7554978922949634
 42
-0.4142135623731017
 10
0.9055619070915412
 20
0.7479441031288534
 42
-0.9999999999999998
  0
LINE
  5
BCBB
330
BD22
100
AcDbEntity
  8
TEXT
100
AcDbLine
 10
1.103818118703112
 20
0.7554978922949634
 30
0.0
 11
1.103818118703112
 21
0.6804454862207568
 31
0.0
  0
LINE
  5
BCBC
330
BD22
100
AcDbEntity
  8
TEXT
100
AcDbLine
 10
0.972619953873383
 20
0.7554978922949634
 30
0.0
 11
1.026753550794333
 21
0.7554978922949634
 31
0.0
  0
LINE
  5
BCBD
330
BD22
100
AcDbEntity
  8
TEXT
100
AcDbLine
 10
0.972619953873383
 20
0.5533015539632178
 30
0.0
 11
0.972619953873383
 21
0.7554978922949634
 31
0.0
  0
LWPOLYLINE
  5
BCBE
330
BD22
100
AcDbEntity
  8
TEXT
100
AcDbPolyline
 90
        2
 70
     0
 43
0.0
 10
1.026753550794331
 20
0.7554978922949634
 42
-0.4142135623731017
 10
1.034307339960444
 20
0.7479441031288534
 42
-0.9999999999999998
  0
LWPOLYLINE
  5
BCC2
330
BD22
100
AcDbEntity
  8
TEXT
100
AcDbPolyline
 90
        4
 70
     0
 43
0.0
 10
1.034307339960444
 20
0.7479441031288534
 10
1.034307339960444
 20
0.5533015539632178
 10
1.102785623248302
 20
0.5533015539632178
 10
1.102785623248302
 20
0.596792498913656
 42
-1.714843617202739
  0
LINE
  5
BCC8
330
BD22
100
AcDbEntity
  8
TEXT
100
AcDbLine
 10
0.4629214555652006
 20
0.8197745869517287
 30
0.0
 11
0.4629214555652006
 21
0.8541625045458669
 31
0.0
  0
LINE
  5
BCC9
330
BD22
100
AcDbEntity
  8
TEXT
100
AcDbLine
 10
0.5347204217091079
 20
0.8197745869517287
 30
0.0
 11
0.4629214555652006
 21
0.8197745869517287
 31
0.0
  0
LINE
  5
BCCA
330
BD22
100
AcDbEntity
  8
TEXT
100
AcDbLine
 10
0.6822212183402876
 20
0.8197745869517287
 30
0.0
 11
0.6520993055469113
 21
0.8197745869517287
 31
0.0
  0
LINE
  5
BCCB
330
BD22
100
AcDbEntity
  8
TEXT
100
AcDbLine
 10
0.6822212183402876
 20
0.8877860646905393
 30
0.0
 11
0.6822212183402876
 21
0.8197745869517287
 31
0.0
  0
LINE
  5
BCCC
330
BD22
100
AcDbEntity
  8
TEXT
100
AcDbLine
 10
0.7490299309066526
 20
0.8877860646905393
 30
0.0
 11
0.6822212183402876
 21
0.8877860646905393
 31
0.0
  0
LWPOLYLINE
  5
BCCD
330
BD22
100
AcDbEntity
  8
TEXT
100
AcDbPolyline
 90
        3
 70
     0
 43
0.0
 10
1.069441690504654
 20
0.8197745869517323
 10
0.9511415316886104
 20
0.8197745869517323
 10
0.9511415316886104
 20
0.7926070901908365
 42
-1.960274751411753
  0
LINE
  5
BCD2
330
BD22
100
AcDbEntity
  8
TEXT
100
AcDbLine
 10
0.915359840975449
 20
0.8197745869517287
 30
0.0
 11
0.7813417850443127
 21
0.8197745869517287
 31
0.0
  0
LWPOLYLINE
  5
BCD3
330
BD22
100
AcDbEntity
  8
TEXT
100
AcDbPolyline
 90
        2
 70
     0
 43
0.0
 10
0.915359840975449
 20
0.8197745869517323
 42
-0.3328679258950098
 10
0.9511415316886104
 20
0.7926070901908365
 42
6.772930709997214
  0
LINE
  5
BCD7
330
BD22
100
AcDbEntity
  8
TEXT
100
AcDbLine
 10
1.105223381217821
 20
0.8197745869517287
 30
0.0
 11
1.105223381217821
 21
0.7914520411820849
 31
0.0
  0
LWPOLYLINE
  5
BCD8
330
BD22
100
AcDbEntity
  8
TEXT
100
AcDbPolyline
 90
        2
 70
     0
 43
0.0
 10
1.069441690504654
 20
0.8197745869517323
 42
-0.3277054968067132
 10
1.105223381217819
 20
0.7914520411820885
 42
6.667889725900311
  0
LINE
  5
BCDC
330
BD22
100
AcDbEntity
  8
TEXT
100
AcDbLine
 10
1.319015229309921
 20
0.7145626083983015
 30
0.0
 11
1.27526445812802
 21
0.7968128843944467
 31
0.0
  0
LINE
  5
BCDD
330
BD22
100
AcDbEntity
  8
TEXT
100
AcDbLine
 10
1.319015229309921
 20
0.8197745869517287
 30
0.0
 11
1.319015229309921
 21
0.7145626083983015
 31
0.0
  0
LINE
  5
BCDE
330
BD22
100
AcDbEntity
  8
TEXT
100
AcDbLine
 10
1.54669896824829
 20
0.7439092605401907
 30
0.0
 11
1.54669896824829
 21
0.8852387927193294
 31
0.0
  0
LINE
  5
BCDF
330
BD22
100
AcDbEntity
  8
TEXT
100
AcDbLine
 10
1.593797126804275
 20
0.8197745869517287
 30
0.0
 11
1.54669896824829
 21
0.7439092605401907
 31
0.0
  0
LINE
  5
BCE0
330
BD22
100
AcDbEntity
  8
TEXT
100
AcDbLine
 10
1.604231843568198
 20
0.7098813440107552
 30
0.0
 11
1.668788959533903
 21
0.8197745869517287
 31
0.0
  0
LINE
  5
BCE1
330
BD22
100
AcDbEntity
  8
TEXT
100
AcDbLine
 10
1.482863977025517
 20
0.5533015539632178
 30
0.0
 11
1.547242161344138
 21
0.5533015539632178
 31
0.0
  0
LWPOLYLINE
  5
BCE2
330
BD22
100
AcDbEntity
  8
TEXT
100
AcDbPolyline
 90
        2
 70
     0
 43
0.0
 10
1.322954906614959
 20
0.596792498913656
 42
-0.2901071551932486
 10
1.279878973747315
 20
0.5533015539632178
 42
-5.328517124445184
  0
ARC
  5
BCE6
330
BD22
100
AcDbEntity
  8
TEXT
100
AcDbCircle
 10
1.2110243920904
 20
0.7271385172949661
 30
0.0
 40
0.028359375
100
AcDbArc
 50
25.78218179591245
 51
90.0
  0
LINE
  5
BCE7
330
BD22
100
AcDbEntity
  8
TEXT
100
AcDbLine
 10
1.246825467394523
 20
0.7182229188328311
 30
0.0
 11
1.236560706980959
 21
0.7394734584055254
 31
0.0
  0
LINE
  5
BCE8
330
BD22
100
AcDbEntity
  8
TEXT
100
AcDbLine
 10
1.16453747761114
 20
0.7182229188328311
 30
0.0
 11
1.246825467394523
 21
0.7182229188328311
 31
0.0
  0
LWPOLYLINE
  5
BCE9
330
BD22
100
AcDbEntity
  8
TEXT
100
AcDbPolyline
 90
        4
 70
     1
 43
0.0
 10
1.259756508677422
 20
0.6562655319472431
 10
1.171096190017564
 20
0.6562655319472431
 42
0.9999999999999998
 10
1.171096190017564
 20
0.6138669914433823
 10
1.259756508677422
 20
0.6138669914433823
 42
1.0
  0
LWPOLYLINE
  5
BCEF
330
BD22
100
AcDbEntity
  8
TEXT
100
AcDbPolyline
 90
        2
 70
     0
 43
0.0
 10
1.145861556115938
 20
0.5533015539632178
 10
1.279878973747315
 20
0.5533015539632178
 42
0.9999999999999998
  0
LINE
  5
BCF3
330
BD22
100
AcDbEntity
  8
TEXT
100
AcDbLine
 10
1.406215995732954
 20
0.7554978922949634
 30
0.0
 11
1.482863977025512
 21
0.7554978922949634
 31
0.0
  0
LINE
  5
BCF4
330
BD22
100
AcDbEntity
  8
TEXT
100
AcDbLine
 10
1.482863977025512
 20
0.7554978922949634
 30
0.0
 11
1.482863977025517
 21
0.5533015539632178
 31
0.0
  0
ARC
  5
BCF5
330
BD22
100
AcDbEntity
  8
TEXT
100
AcDbCircle
 10
1.406215995732952
 20
0.7305920170123006
 30
0.0
 40
0.0249058752826653
100
AcDbArc
 50
89.99971217465335
 51
179.9999999999985
  0
LINE
  5
BCF6
330
BD22
100
AcDbEntity
  8
TEXT
100
AcDbLine
 10
1.381310120450295
 20
0.5533015539632178
 30
0.0
 11
1.381310120450289
 21
0.7305920593946862
 31
0.0
  0
LWPOLYLINE
  5
BCF7
330
BD22
100
AcDbEntity
  8
TEXT
100
AcDbPolyline
 90
        2
 70
     0
 43
0.0
 10
1.322954906614959
 20
0.5533015539632178
 10
1.381310120450293
 20
0.5533015539632178
  0
LWPOLYLINE
  5
BCFB
330
BD22
100
AcDbEntity
  8
TEXT
100
AcDbPolyline
 90
        2
 70
     0
 43
0.0
 10
1.322954906614959
 20
0.596792498913656
 10
1.322954906614959
 20
0.5533015539632178
  0
LINE
  5
BCFF
330
BD22
100
AcDbEntity
  8
TEXT
100
AcDbLine
 10
1.699724066931808
 20
0.5533015539632178
 30
0.0
 11
1.604231843568198
 21
0.7098813440107552
 31
0.0
  0
LINE
  5
BD00
330
BD22
100
AcDbEntity
  8
TEXT
100
AcDbLine
 10
1.623145694555602
 20
0.5533015539632178
 30
0.0
 11
1.699724066931808
 21
0.5533015539632178
 31
0.0
  0
LINE
  5
BD01
330
BD22
100
AcDbEntity
  8
TEXT
100
AcDbLine
 10
1.547242161344138
 20
0.6848811224393981
 30
0.0
 11
1.623145694555602
 21
0.5533015539632178
 31
0.0
  0
LINE
  5
BD02
330
BD22
100
AcDbEntity
  8
TEXT
100
AcDbLine
 10
1.547242161344138
 20
0.5533015539632178
 30
0.0
 11
1.547242161344138
 21
0.6848811224393981
 31
0.0
  0
LINE
  5
BD03
330
BD22
100
AcDbEntity
  8
TEXT
100
AcDbLine
 10
1.54669896824829
 20
0.8852387927193294
 30
0.0
 11
1.478384089699017
 21
0.8852387927193294
 31
0.0
  0
ARC
  5
BD04
330
BD22
100
AcDbEntity
  8
TEXT
100
AcDbCircle
 10
1.238028350657811
 20
0.7781910198308264
 30
0.0
 40
0.0416329381542859
100
AcDbArc
 50
26.56974201007528
 51
87.20939649401342
  0
LINE
  5
BD05
330
BD22
100
AcDbEntity
  8
TEXT
100
AcDbLine
 10
1.382912135609422
 20
0.8197745869517287
 30
0.0
 11
1.319015229309921
 21
0.8197745869517287
 31
0.0
  0
LINE
  5
BD06
330
BD22
100
AcDbEntity
  8
TEXT
100
AcDbLine
 10
1.382912135609422
 20
0.7922269370908542
 30
0.0
 11
1.382912135609422
 21
0.8197745869517287
 31
0.0
  0
ARC
  5
BD07
330
BD22
100
AcDbEntity
  8
TEXT
100
AcDbCircle
 10
1.41410495267253
 20
0.788528859669464
 30
0.0
 40
0.0314112657011332
100
AcDbArc
 50
95.88484768694724
 51
173.2388340632136
  0
LINE
  5
BD08
330
BD22
100
AcDbEntity
  8
TEXT
100
AcDbLine
 10
1.478384089699012
 20
0.8197745869517287
 30
0.0
 11
1.410884372049495
 21
0.8197745869517287
 31
0.0
  0
LINE
  5
BD09
330
BD22
100
AcDbEntity
  8
TEXT
100
AcDbLine
 10
1.478384089699017
 20
0.8852387927193294
 30
0.0
 11
1.478384089699012
 21
0.8197745869517287
 31
0.0
  0
LINE
  5
BD0A
330
BD22
100
AcDbEntity
  8
TEXT
100
AcDbLine
 10
1.668788959533903
 20
0.8197745869517287
 30
0.0
 11
1.593797126804276
 21
0.8197745869517287
 31
0.0
  0
ENDSEC
  0
SECTION
  2
OBJECTS
  0
DICTIONARY
  5
BD16
330
0
100
AcDbDictionary
  3
ACAD_GROUP
350
BD17
  3
ACAD_LAYOUT
350
BD3C
  3
ACAD_MLINESTYLE
350
BD18
  3
ACAD_PLOTSETTINGS
350
BD3D
  3
ACAD_PLOTSTYLENAME
350
BD3A
  3
ACDBHEADERROUNDTRIPXREC
350
BD47
  3
ACDBVARIABLEDICTIONARY
350
BD44
  0
DICTIONARY
  5
BD69
330
BD22
100
AcDbDictionary
280
     1
  3
ACAD_LAYOUTSELFREF
360
BD6A
  0
DICTIONARY
  5
BD67
330
BD1F
100
AcDbDictionary
280
     1
  3
ACAD_LAYOUTSELFREF
360
BD68
  0
DICTIONARY
  5
BD17
102
{ACAD_REACTORS
330
BD16
102
}
330
BD16
100
AcDbDictionary
  0
DICTIONARY
  5
BD3C
102
{ACAD_REACTORS
330
BD16
102
}
330
BD16
100
AcDbDictionary
  0
DICTIONARY
  5
BD18
102
{ACAD_REACTORS
330
BD16
102
}
330
BD16
100
AcDbDictionary
  3
STANDARD
350
BD25
  0
DICTIONARY
  5
BD3D
102
{ACAD_REACTORS
330
BD16
102
}
330
BD16
100
AcDbDictionary
  0
ACDBDICTIONARYWDFLT
  5
BD3A
102
{ACAD_REACTORS
330
BD16
102
}
330
BD16
100
AcDbDictionary
281
     1
  3
Normal
350
BD3B
100
AcDbDictionaryWithDefault
340
BD3B
  0
DICTIONARY
  5
BD47
102
{ACAD_REACTORS
330
BD16
102
}
330
BD16
100
AcDbDictionary
  3
CEPSNTYPE
350
BD51
  3
FINGERPRINTGUID
350
BD52
  3
HYPERLINKBASE
350
BD4A
  3
INSUNITS
350
BD50
  3
LAYOUTDICT
350
BD4C
  3
LWETCUNION
350
BD4F
  3
PLOTSETDICT
350
BD4D
  3
PLOTSTYLNAMDICT
350
BD4E
  3
PSVPSCALE
350
BD54
  3
PUCSBASE
350
BD57
  3
PUCSORGBACK
350
BD5D
  3
PUCSORGBOTTOM
350
BD59
  3
PUCSORGFRONT
350
BD5C
  3
PUCSORGLEFT
350
BD5A
  3
PUCSORGRIGHT
350
BD5B
  3
PUCSORGTOP
350
BD58
  3
PUCSORTHOREF
350
BD55
  3
PUCSORTHOVIEW
350
BD56
  3
STYLESHEET
350
BD4B
  3
TSTACKALIGN
350
BD48
  3
TSTACKSIZE
350
BD49
  3
UCSBASE
350
BD60
  3
UCSORGBACK
350
BD66
  3
UCSORGBOTTOM
350
BD62
  3
UCSORGFRONT
350
BD65
  3
UCSORGLEFT
350
BD63
  3
UCSORGRIGHT
350
BD64
  3
UCSORGTOP
350
BD61
  3
UCSORTHOREF
350
BD5E
  3
UCSORTHOVIEW
350
BD5F
  3
VERSIONGUID
350
BD53
  0
DICTIONARY
  5
BD44
102
{ACAD_REACTORS
330
BD16
102
}
330
BD16
100
AcDbDictionary
  3
DIMASSOC
350
BD45
  0
XRECORD
  5
BD6A
102
{ACAD_REACTORS
330
BD69
102
}
330
BD69
100
AcDbXrecord
340
BD22
  0
XRECORD
  5
BD68
102
{ACAD_REACTORS
330
BD67
102
}
330
BD67
100
AcDbXrecord
340
BD1F
  0
MLINESTYLE
  5
BD25
102
{ACAD_REACTORS
330
BD18
102
}
330
BD18
100
AcDbMlineStyle
  2
STANDARD
 70
     0
  3

 62
     0
 51
90.0
 52
90.0
 71
     2
 49
0.5
 62
   256
  6
BYLAYER
 49
-0.5
 62
   256
  6
BYLAYER
  0
ACDBPLACEHOLDER
  5
BD3B
102
{ACAD_REACTORS
330
BD3A
102
}
330
BD3A
100
AcDbPlaceHolder
280
     0
  0
XRECORD
  5
BD51
102
{ACAD_REACTORS
330
BD47
102
}
330
BD47
100
AcDbXrecord
 90
        0
  0
XRECORD
  5
BD52
102
{ACAD_REACTORS
330
BD47
102
}
330
BD47
100
AcDbXrecord
  1
{54CAD980-8DB3-11D6-88E6-0090279574E7}
  0
XRECORD
  5
BD4A
102
{ACAD_REACTORS
330
BD47
102
}
330
BD47
100
AcDbXrecord
  1

  0
XRECORD
  5
BD50
102
{ACAD_REACTORS
330
BD47
102
}
330
BD47
100
AcDbXrecord
 90
        0
  0
XRECORD
  5
BD4C
102
{ACAD_REACTORS
330
BD47
102
}
330
BD47
100
AcDbXrecord
340
BD3C
  0
XRECORD
  5
BD4F
102
{ACAD_REACTORS
330
BD47
102
}
330
BD47
100
AcDbXrecord
 90
    14877
  0
XRECORD
  5
BD4D
102
{ACAD_REACTORS
330
BD47
102
}
330
BD47
100
AcDbXrecord
340
BD3D
  0
XRECORD
  5
BD4E
102
{ACAD_REACTORS
330
BD47
102
}
330
BD47
100
AcDbXrecord
340
BD3A
  0
XRECORD
  5
BD54
102
{ACAD_REACTORS
330
BD47
102
}
330
BD47
100
AcDbXrecord
 40
0.0
  0
XRECORD
  5
BD57
102
{ACAD_REACTORS
330
BD47
102
}
330
BD47
100
AcDbXrecord
340
0
  0
XRECORD
  5
BD5D
102
{ACAD_REACTORS
330
BD47
102
}
330
BD47
100
AcDbXrecord
 10
0.0
 20
0.0
 30
0.0
  0
XRECORD
  5
BD59
102
{ACAD_REACTORS
330
BD47
102
}
330
BD47
100
AcDbXrecord
 10
0.0
 20
0.0
 30
0.0
  0
XRECORD
  5
BD5C
102
{ACAD_REACTORS
330
BD47
102
}
330
BD47
100
AcDbXrecord
 10
0.0
 20
0.0
 30
0.0
  0
XRECORD
  5
BD5A
102
{ACAD_REACTORS
330
BD47
102
}
330
BD47
100
AcDbXrecord
 10
0.0
 20
0.0
 30
0.0
  0
XRECORD
  5
BD5B
102
{ACAD_REACTORS
330
BD47
102
}
330
BD47
100
AcDbXrecord
 10
0.0
 20
0.0
 30
0.0
  0
XRECORD
  5
BD58
102
{ACAD_REACTORS
330
BD47
102
}
330
BD47
100
AcDbXrecord
 10
0.0
 20
0.0
 30
0.0
  0
XRECORD
  5
BD55
102
{ACAD_REACTORS
330
BD47
102
}
330
BD47
100
AcDbXrecord
340
0
  0
XRECORD
  5
BD56
102
{ACAD_REACTORS
330
BD47
102
}
330
BD47
100
AcDbXrecord
 70
     0
  0
XRECORD
  5
BD4B
102
{ACAD_REACTORS
330
BD47
102
}
330
BD47
100
AcDbXrecord
  1

  0
XRECORD
  5
BD48
102
{ACAD_REACTORS
330
BD47
102
}
330
BD47
100
AcDbXrecord
 90
        1
  0
XRECORD
  5
BD49
102
{ACAD_REACTORS
330
BD47
102
}
330
BD47
100
AcDbXrecord
 90
       70
  0
XRECORD
  5
BD60
102
{ACAD_REACTORS
330
BD47
102
}
330
BD47
100
AcDbXrecord
340
0
  0
XRECORD
  5
BD66
102
{ACAD_REACTORS
330
BD47
102
}
330
BD47
100
AcDbXrecord
 10
0.0
 20
0.0
 30
0.0
  0
XRECORD
  5
BD62
102
{ACAD_REACTORS
330
BD47
102
}
330
BD47
100
AcDbXrecord
 10
0.0
 20
0.0
 30
0.0
  0
XRECORD
  5
BD65
102
{ACAD_REACTORS
330
BD47
102
}
330
BD47
100
AcDbXrecord
 10
0.0
 20
0.0
 30
0.0
  0
XRECORD
  5
BD63
102
{ACAD_REACTORS
330
BD47
102
}
330
BD47
100
AcDbXrecord
 10
0.0
 20
0.0
 30
0.0
  0
XRECORD
  5
BD64
102
{ACAD_REACTORS
330
BD47
102
}
330
BD47
100
AcDbXrecord
 10
0.0
 20
0.0
 30
0.0
  0
XRECORD
  5
BD61
102
{ACAD_REACTORS
330
BD47
102
}
330
BD47
100
AcDbXrecord
 10
0.0
 20
0.0
 30
0.0
  0
XRECORD
  5
BD5E
102
{ACAD_REACTORS
330
BD47
102
}
330
BD47
100
AcDbXrecord
340
0
  0
XRECORD
  5
BD5F
102
{ACAD_REACTORS
330
BD47
102
}
330
BD47
100
AcDbXrecord
 70
     0
  0
XRECORD
  5
BD53
102
{ACAD_REACTORS
330
BD47
102
}
330
BD47
100
AcDbXrecord
  1
{54CAD982-8DB3-11D6-88E6-0090279574E7}
  0
DICTIONARYVAR
  5
BD45
102
{ACAD_REACTORS
330
BD44
102
}
330
BD44
100
DictionaryVariables
280
     0
  1
1
  0
ENDSEC
  0
EOF
