  0
SECTION
  2
HEADER
  9
$ACADVER
  1
AC1014
  9
$ACADMAINTVER
 70
     9
  9
$DWGCODEPAGE
  3
ANSI_1252
  9
$INSBASE
 10
1.585409031078747
 20
1.849375
 30
0.0
  9
$EXTMIN
 10
-0.1575725481483963
 20
0.7319813959174184
 30
0.0
  9
$EXTMAX
 10
3.327646773598731
 20
2.08090562028784
 30
0.0
  9
$LIMMIN
 10
0.0
 20
0.0
  9
$LIMMAX
 10
18.0
 20
12.0
  9
$ORTHOMODE
 70
     1
  9
$REGENMODE
 70
     1
  9
$FILLMODE
 70
     1
  9
$QTEXTMODE
 70
     0
  9
$MIRRTEXT
 70
     0
  9
$DRAGMODE
 70
     2
  9
$LTSCALE
 40
1.0
  9
$OSMODE
 70
    39
  9
$ATTMODE
 70
     1
  9
$TEXTSIZE
 40
0.125
  9
$TRACEWID
 40
0.05
  9
$TEXTSTYLE
  7
ROMANS
  9
$CLAYER
  8
0
  9
$CELTYPE
  6
BYLAYER
  9
$CECOLOR
 62
   256
  9
$CELTSCALE
 40
1.0
  9
$DELOBJ
 70
     1
  9
$DISPSILH
 70
     1
  9
$DIMSCALE
 40
1.0
  9
$DIMASZ
 40
0.125
  9
$DIMEXO
 40
0.125
  9
$DIMDLI
 40
0.375
  9
$DIMRND
 40
0.0
  9
$DIMDLE
 40
0.0
  9
$DIMEXE
 40
0.125
  9
$DIMTP
 40
0.0
  9
$DIMTM
 40
0.0
  9
$DIMTXT
 40
0.125
  9
$DIMCEN
 40
-0.125
  9
$DIMTSZ
 40
0.0
  9
$DIMTOL
 70
     0
  9
$DIMLIM
 70
     0
  9
$DIMTIH
 70
     1
  9
$DIMTOH
 70
     1
  9
$DIMSE1
 70
     0
  9
$DIMSE2
 70
     0
  9
$DIMTAD
 70
     0
  9
$DIMZIN
 70
     4
  9
$DIMBLK
  1

  9
$DIMASO
 70
     1
  9
$DIMSHO
 70
     1
  9
$DIMPOST
  1

  9
$DIMAPOST
  1

  9
$DIMALT
 70
     0
  9
$DIMALTD
 70
     2
  9
$DIMALTF
 40
25.4
  9
$DIMLFAC
 40
1.0
  9
$DIMTOFL
 70
     0
  9
$DIMTVP
 40
0.0
  9
$DIMTIX
 70
     1
  9
$DIMSOXD
 70
     0
  9
$DIMSAH
 70
     0
  9
$DIMBLK1
  1

  9
$DIMBLK2
  1

  9
$DIMSTYLE
  2
STANDARD
  9
$DIMCLRD
 70
     0
  9
$DIMCLRE
 70
     0
  9
$DIMCLRT
 70
     0
  9
$DIMTFAC
 40
1.0
  9
$DIMGAP
 40
0.09
  9
$DIMJUST
 70
     0
  9
$DIMSD1
 70
     0
  9
$DIMSD2
 70
     0
  9
$DIMTOLJ
 70
     1
  9
$DIMTZIN
 70
     4
  9
$DIMALTZ
 70
     0
  9
$DIMALTTZ
 70
     0
  9
$DIMFIT
 70
     3
  9
$DIMUPT
 70
     0
  9
$DIMUNIT
 70
     2
  9
$DIMDEC
 70
     3
  9
$DIMTDEC
 70
     3
  9
$DIMALTU
 70
     2
  9
$DIMALTTD
 70
     2
  9
$DIMTXSTY
  7
ROMANS
  9
$DIMAUNIT
 70
     0
  9
$LUNITS
 70
     2
  9
$LUPREC
 70
     3
  9
$SKETCHINC
 40
0.1
  9
$FILLETRAD
 40
0.03125
  9
$AUNITS
 70
     0
  9
$AUPREC
 70
     0
  9
$MENU
  1
ACAD
  9
$ELEVATION
 40
0.0
  9
$PELEVATION
 40
0.0
  9
$THICKNESS
 40
0.0
  9
$LIMCHECK
 70
     0
  9
$BLIPMODE
 70
     0
  9
$CHAMFERA
 40
0.0
  9
$CHAMFERB
 40
0.0
  9
$CHAMFERC
 40
0.0
  9
$CHAMFERD
 40
0.0
  9
$SKPOLY
 70
     0
  9
$TDCREATE
 40
2448993.351386458
  9
$TDUPDATE
 40
2452458.292090000
  9
$TDINDWG
 40
0.0017651389
  9
$TDUSRTIMER
 40
0.0017651389
  9
$USRTIMER
 70
     1
  9
$ANGBASE
 50
0.0
  9
$ANGDIR
 70
     0
  9
$PDMODE
 70
     0
  9
$PDSIZE
 40
0.0
  9
$PLINEWID
 40
0.0
  9
$COORDS
 70
     2
  9
$SPLFRAME
 70
     0
  9
$SPLINETYPE
 70
     6
  9
$SPLINESEGS
 70
     8
  9
$ATTDIA
 70
     0
  9
$ATTREQ
 70
     1
  9
$HANDLING
 70
 22529
  9
$HANDSEED
  5
68FC
  9
$SURFTAB1
 70
     6
  9
$SURFTAB2
 70
     6
  9
$SURFTYPE
 70
     6
  9
$SURFU
 70
     6
  9
$SURFV
 70
     6
  9
$UCSNAME
  2

  9
$UCSORG
 10
0.0
 20
0.0
 30
0.0
  9
$UCSXDIR
 10
1.0
 20
0.0
 30
0.0
  9
$UCSYDIR
 10
0.0
 20
1.0
 30
0.0
  9
$PUCSNAME
  2

  9
$PUCSORG
 10
0.0
 20
0.0
 30
0.0
  9
$PUCSXDIR
 10
1.0
 20
0.0
 30
0.0
  9
$PUCSYDIR
 10
0.0
 20
1.0
 30
0.0
  9
$USERI1
 70
     0
  9
$USERI2
 70
     0
  9
$USERI3
 70
     0
  9
$USERI4
 70
     0
  9
$USERI5
 70
     0
  9
$USERR1
 40
0.0
  9
$USERR2
 40
0.0
  9
$USERR3
 40
0.0
  9
$USERR4
 40
0.0
  9
$USERR5
 40
0.0
  9
$WORLDVIEW
 70
     1
  9
$SHADEDGE
 70
     3
  9
$SHADEDIF
 70
    70
  9
$TILEMODE
 70
     1
  9
$MAXACTVP
 70
    16
  9
$PINSBASE
 10
1.73358604948266
 20
50.00000000000001
 30
1.539634145983699
  9
$PLIMCHECK
 70
     0
  9
$PEXTMIN
 10
1.000000000000000E+20
 20
1.000000000000000E+20
 30
1.000000000000000E+20
  9
$PEXTMAX
 10
-1.000000000000000E+20
 20
-1.000000000000000E+20
 30
-1.000000000000000E+20
  9
$PLIMMIN
 10
0.0
 20
0.0
  9
$PLIMMAX
 10
12.0
 20
9.0
  9
$UNITMODE
 70
     0
  9
$VISRETAIN
 70
     0
  9
$PLINEGEN
 70
     1
  9
$PSLTSCALE
 70
     0
  9
$TREEDEPTH
 70
  3020
  9
$PICKSTYLE
 70
     1
  9
$CMLSTYLE
  2
STANDARD
  9
$CMLJUST
 70
     0
  9
$CMLSCALE
 40
1.0
  9
$PROXYGRAPHICS
 70
     1
  9
$MEASUREMENT
 70
     0
  0
ENDSEC
  0
SECTION
  2
CLASSES
  0
CLASS
  1
LWPOLYLINE
  2
AcDbPolyline
  3
AutoCAD 2000
 90
        0
280
     0
281
     1
  0
CLASS
  1
ACDBDICTIONARYWDFLT
  2
AcDbDictionaryWithDefault
  3
AutoCAD 2000
 90
        0
280
     0
281
     0
  0
CLASS
  1
ACDBPLACEHOLDER
  2
AcDbPlaceHolder
  3
AutoCAD 2000
 90
        0
280
     0
281
     0
  0
CLASS
  1
LAYOUT
  2
AcDbLayout
  3
AutoCAD 2000
 90
        0
280
     0
281
     0
  0
CLASS
  1
DICTIONARYVAR
  2
AcDbDictionaryVar
  3
AutoCAD 2000
 90
        0
280
     0
281
     0
  0
CLASS
  1
LONG_TRANSACTION
  2
AcDbLongTransaction
  3
AutoCAD 2000
 90
        0
280
     0
281
     0
  0
CLASS
  1
LWPOLYLINE
  2
AcDbPolyline
  3
AutoCAD 2000
 90
        0
280
     0
281
     1
  0
CLASS
  1
HATCH
  2
AcDbHatch
  3
AutoCAD 2000
 90
        0
280
     0
281
     1
  0
CLASS
  1
XRECORD
  2
AcDbXrecord
  3
AutoCAD 2000
 90
        0
280
     0
281
     0
  0
ENDSEC
  0
SECTION
  2
TABLES
  0
TABLE
  2
VPORT
  5
68A2
330
0
100
AcDbSymbolTable
 70
     2
  0
VPORT
  5
68D7
330
68A2
100
AcDbSymbolTableRecord
100
AcDbViewportTableRecord
  2
*ACTIVE
 70
     0
 10
0.0
 20
0.0
 11
1.0
 21
1.0
 12
4.561665600192545
 22
1.406341575326329
 13
0.0
 23
0.0
 14
0.015625
 24
0.015625
 15
0.0
 25
0.0
 16
0.0
 26
0.0
 36
1.0
 17
0.0
 27
0.0
 37
0.0
 40
2.282677687471586
 41
4.320930232558139
 42
50.0
 43
0.0
 44
0.0
 50
0.0
 51
0.0
 71
     0
 72
  2000
 73
     1
 74
     0
 75
     1
 76
     0
 77
     0
 78
     0
  0
ENDTAB
  0
TABLE
  2
LTYPE
  5
689F
330
0
100
AcDbSymbolTable
 70
     1
  0
LTYPE
  5
68AC
330
689F
100
AcDbSymbolTableRecord
100
AcDbLinetypeTableRecord
  2
BYBLOCK
 70
     0
  3

 72
    65
 73
     0
 40
0.0
  0
LTYPE
  5
68AD
330
689F
100
AcDbSymbolTableRecord
100
AcDbLinetypeTableRecord
  2
BYLAYER
 70
     0
  3

 72
    65
 73
     0
 40
0.0
  0
LTYPE
  5
68AE
330
689F
100
AcDbSymbolTableRecord
100
AcDbLinetypeTableRecord
  2
CONTINUOUS
 70
     0
  3
Solid line
 72
    65
 73
     0
 40
0.0
  0
ENDTAB
  0
TABLE
  2
LAYER
  5
689C
330
0
100
AcDbSymbolTable
 70
     2
  0
LAYER
  5
68A9
330
689C
100
AcDbSymbolTableRecord
100
AcDbLayerTableRecord
  2
0
 70
     0
 62
     7
  6
CONTINUOUS
  0
LAYER
  5
68B9
330
689C
100
AcDbSymbolTableRecord
100
AcDbLayerTableRecord
  2
TEXT
 70
     0
 62
     3
  6
CONTINUOUS
  0
ENDTAB
  0
TABLE
  2
STYLE
  5
689D
330
0
100
AcDbSymbolTable
 70
     3
  0
STYLE
  5
68AA
330
689D
100
AcDbSymbolTableRecord
100
AcDbTextStyleTableRecord
  2
STANDARD
 70
     0
 40
0.0
 41
1.0
 50
0.0
 71
     0
 42
0.3125
  3
txt
  4

  0
STYLE
  5
68B6
330
689D
100
AcDbSymbolTableRecord
100
AcDbTextStyleTableRecord
  2
ITALICC
 70
     0
 40
0.0
 41
1.0
 50
0.0
 71
     0
 42
0.125
  3
italicc
  4

  0
STYLE
  5
68C6
330
689D
100
AcDbSymbolTableRecord
100
AcDbTextStyleTableRecord
  2
ROMANS
 70
     0
 40
0.0
 41
1.0
 50
0.0
 71
     0
 42
0.125
  3
romans.shx
  4

  0
ENDTAB
  0
TABLE
  2
VIEW
  5
68A0
330
0
100
AcDbSymbolTable
 70
     0
  0
ENDTAB
  0
TABLE
  2
UCS
  5
68A1
330
0
100
AcDbSymbolTable
 70
     0
  0
ENDTAB
  0
TABLE
  2
APPID
  5
68A3
330
0
100
AcDbSymbolTable
 70
     1
  0
APPID
  5
68AB
330
68A3
100
AcDbSymbolTableRecord
100
AcDbRegAppTableRecord
  2
ACAD
 70
     0
  0
ENDTAB
  0
TABLE
  2
DIMSTYLE
  5
68A4
330
0
100
AcDbSymbolTable
 70
     1
  0
DIMSTYLE
105
68BE
330
68A4
100
AcDbSymbolTableRecord
100
AcDbDimStyleTableRecord
  2
STANDARD
 70
     0
  3

  4

  5

  6

  7

 40
1.0
 41
0.125
 42
0.125
 43
0.375
 44
0.125
 45
0.0
 46
0.0
 47
0.0
 48
0.0
140
0.125
141
-0.125
142
0.0
143
25.4
144
1.0
145
0.0
146
1.0
147
0.09
 71
     0
 72
     0
 73
     1
 74
     1
 75
     0
 76
     0
 77
     0
 78
     4
170
     0
171
     2
172
     0
173
     0
174
     1
175
     0
176
     0
177
     0
178
     0
270
     2
271
     3
272
     3
273
     2
274
     2
340
68C6
275
     0
280
     0
281
     0
282
     0
283
     1
284
     4
285
     0
286
     0
287
     3
288
     0
  0
ENDTAB
  0
TABLE
  2
BLOCK_RECORD
  5
689B
330
0
100
AcDbSymbolTable
 70
     0
  0
BLOCK_RECORD
  5
68B2
102
{ACAD_XDICTIONARY
360
68FA
102
}
330
689B
100
AcDbSymbolTableRecord
100
AcDbBlockTableRecord
  2
*MODEL_SPACE
  0
BLOCK_RECORD
  5
68AF
102
{ACAD_XDICTIONARY
360
68F8
102
}
330
689B
100
AcDbSymbolTableRecord
100
AcDbBlockTableRecord
  2
*PAPER_SPACE
  0
ENDTAB
  0
ENDSEC
  0
SECTION
  2
BLOCKS
  0
BLOCK
  5
68BC
330
68B2
100
AcDbEntity
  8
0
100
AcDbBlockBegin
  2
*MODEL_SPACE
 70
     0
 10
0.0
 20
0.0
 30
0.0
  3
*MODEL_SPACE
  1

  0
ENDBLK
  5
68BD
330
68B2
100
AcDbEntity
  8
0
100
AcDbBlockEnd
  0
BLOCK
  5
68BA
330
68AF
100
AcDbEntity
 67
     1
  8
0
100
AcDbBlockBegin
  2
*PAPER_SPACE
 70
     0
 10
0.0
 20
0.0
 30
0.0
  3
*PAPER_SPACE
  1

  0
ENDBLK
  5
68BB
330
68AF
100
AcDbEntity
 67
     1
  8
0
100
AcDbBlockEnd
  0
ENDSEC
  0
SECTION
  2
ENTITIES
  0
LWPOLYLINE
  5
4E4E
330
68B2
100
AcDbEntity
  8
0
100
AcDbPolyline
 90
       30
 70
     0
 43
0.0
 10
1.791439681944235
 20
2.05238590824574
 42
-0.0381932260379067
 10
1.788453772408285
 20
1.507331595264938
 42
-0.3904449379731923
 10
1.763537422412976
 20
1.484375
 10
1.760409031078747
 20
1.484375
 42
-0.4142135623730951
 10
1.735409031078746
 20
1.509374999999999
 10
1.735409031078746
 20
1.799374999999999
 10
1.435409031078747
 20
1.799374999999999
 10
1.435409031078747
 20
1.7625
 10
1.425409031078747
 20
1.752499999999999
 10
1.435409031078747
 20
1.742499999999999
 10
1.435409031078747
 20
1.509374999999999
 42
-0.4142135623730951
 10
1.410409031078747
 20
1.484375
 10
1.407280639744517
 20
1.484375
 42
-0.3904449379731925
 10
1.382364289749208
 20
1.507331595264938
 42
-0.0381439016148295
 10
1.37932860352839
 20
2.051683751240359
 42
-0.3686749423596303
 10
1.402087300412751
 20
2.074823234203146
 10
1.430601694937533
 20
2.07731792047137
 42
-0.4400105308918349
 10
1.446909031078747
 20
2.062375
 10
1.431909031078747
 20
2.062375
 10
1.431909031078747
 20
1.943374999999999
 10
1.422409031078747
 20
1.943374999999999
 10
1.422409031078747
 20
1.849375
 10
1.748409031078747
 20
1.849375
 10
1.748409031078747
 20
1.943374999999999
 10
1.738909031078747
 20
1.943374999999999
 10
1.738909031078747
 20
2.062375
 10
1.723909031078747
 20
2.062375
 42
-0.4400105308918349
 10
1.740216367219962
 20
2.077317920471376
 10
1.768730761744742
 20
2.074823234203145
 42
-0.3686749423596303
 10
1.791489458629104
 20
2.051683751240359
  0
TEXT
  5
675D
330
68B2
100
AcDbEntity
  8
TEXT
100
AcDbText
 10
0.8324328406025562
 20
1.189999999999999
 30
0.0
 40
0.125
  1
PART #110014
  7
ITALICC
 72
     1
 11
1.585409031078746
 21
1.189999999999999
 31
0.0
100
AcDbText
  0
TEXT
  5
675E
330
68B2
100
AcDbEntity
  8
TEXT
100
AcDbText
 10
1.998714189329067
 20
0.7430773573276248
 30
0.0
 40
0.0522247191011236
  1
Phone  1-800-328-2495
 41
1.272321428571429
 72
     5
 11
3.327646773598731
 21
0.7430773573276248
 31
0.0
100
AcDbText
  0
TEXT
  5
675F
330
68B2
100
AcDbEntity
  8
TEXT
100
AcDbText
 10
1.998714189329067
 20
1.022852638226501
 30
0.0
 40
0.0522247191011236
  1
Stylmark  Incorporated
 41
1.221428571428573
 72
     5
 11
3.327646773598731
 21
1.022852638226501
 31
0.0
100
AcDbText
  0
TEXT
  5
6760
330
68B2
100
AcDbEntity
  8
TEXT
100
AcDbText
 10
1.998714189329067
 20
0.9295942112602091
 30
0.0
 40
0.0522247191011236
  1
6536 Main St. N.E. * P.O. Box 32008
 41
0.8388932496075366
 72
     5
 11
3.327646773598731
 21
0.9295942112602091
 31
0.0
100
AcDbText
  0
TEXT
  5
6761
330
68B2
100
AcDbEntity
  8
TEXT
100
AcDbText
 10
1.998714189329067
 20
0.8363357842939169
 30
0.0
 40
0.0522247191011236
  1
Minneapolis, MN 55432-0008
 41
1.11444212721585
 72
     5
 11
3.327646773598731
 21
0.8363357842939169
 31
0.0
100
AcDbText
  0
LWPOLYLINE
  5
6762
330
68B2
100
AcDbEntity
  8
TEXT
100
AcDbPolyline
 90
        3
 70
     0
 43
0.0006660908203125
 10
-0.1572395027382401
 20
0.8567221199650596
 10
-0.1572395027382401
 20
0.743486680511932
 10
-0.0440040632851178
 20
0.743486680511932
  0
LWPOLYLINE
  5
6767
330
68B2
100
AcDbEntity
  8
TEXT
100
AcDbPolyline
 90
        3
 70
     0
 43
0.0006660908203125
 10
-0.1305958699257426
 20
0.8567221199650596
 10
-0.1305958699257426
 20
0.7701303133244331
 10
-0.0440040632851178
 20
0.7701303133244331
  0
LWPOLYLINE
  5
676C
330
68B2
100
AcDbEntity
  8
TEXT
100
AcDbPolyline
 90
        2
 70
     0
 43
0.0001332181640625
 10
-0.0839695125038658
 20
0.8667134822697448
 10
-0.1572395027382401
 20
0.8567221199650596
  0
LWPOLYLINE
  5
6770
330
68B2
100
AcDbEntity
  8
TEXT
100
AcDbPolyline
 90
        2
 70
     0
 43
0.0001332181640625
 10
-0.1305958699257426
 20
0.8567221199650596
 10
-0.0706476960976152
 20
0.8667134822697448
  0
LWPOLYLINE
  5
6774
330
68B2
100
AcDbEntity
  8
TEXT
100
AcDbPolyline
 90
        2
 70
     0
 43
0.0001332181640625
 10
-0.1305958699257426
 20
0.7701303133244331
 10
-0.0706476960976152
 20
0.8300784871525586
  0
LWPOLYLINE
  5
6778
330
68B2
100
AcDbEntity
  8
TEXT
100
AcDbPolyline
 90
        3
 70
     0
 43
0.0006660908203125
 10
-0.0440040632851178
 20
1.009923008636935
 10
-0.1572395027382401
 20
1.009923008636935
 10
-0.1572395027382401
 20
0.8966875691838076
  0
LWPOLYLINE
  5
677D
330
68B2
100
AcDbEntity
  8
TEXT
100
AcDbPolyline
 90
        3
 70
     0
 43
0.0006660908203125
 10
-0.0440040632851178
 20
0.9832793758244342
 10
-0.1305958699257426
 20
0.9832793758244342
 10
-0.1305958699257426
 20
0.8966875691838076
  0
LWPOLYLINE
  5
6782
330
68B2
100
AcDbEntity
  8
TEXT
100
AcDbPolyline
 90
        2
 70
     0
 43
0.0001332181640625
 10
-0.1305958699257426
 20
0.9832793758244342
 10
-0.070647696097617
 20
0.9233312019963086
  0
LWPOLYLINE
  5
6786
330
68B2
100
AcDbEntity
  8
TEXT
100
AcDbPolyline
 90
        2
 70
     0
 43
0.0001332181640625
 10
-0.1305958699257426
 20
0.8966875691838076
 10
-0.070647696097617
 20
0.8866962068791188
  0
LWPOLYLINE
  5
678A
330
68B2
100
AcDbEntity
  8
TEXT
100
AcDbPolyline
 90
        2
 70
     0
 43
0.0001332181640625
 10
-0.1572395027382401
 20
0.8966875691838076
 10
-0.0839695125038658
 20
0.8866962068791188
  0
LWPOLYLINE
  5
678E
330
68B2
100
AcDbEntity
  8
TEXT
100
AcDbPolyline
 90
        2
 70
     0
 43
0.0006660908203125
 10
-0.1305958699257426
 20
0.8567221199650596
 10
-0.1572395027382401
 20
0.8567221199650596
  0
LWPOLYLINE
  5
6792
330
68B2
100
AcDbEntity
  8
TEXT
100
AcDbPolyline
 90
        2
 70
     0
 43
0.0006660908203125
 10
-0.1305958699257426
 20
0.8966875691838076
 10
-0.1572395027382401
 20
0.8966875691838076
  0
LINE
  5
6796
330
68B2
100
AcDbEntity
  8
TEXT
100
AcDbLine
 10
1.357950926388257
 20
0.9456463139801662
 30
0.0
 11
1.250744653000968
 21
0.9456463139801662
 31
0.0
  0
LINE
  5
6797
330
68B2
100
AcDbEntity
  8
TEXT
100
AcDbLine
 10
1.386981824732735
 20
1.009923008636931
 30
0.0
 11
1.252149915515676
 21
1.009923008636931
 31
0.0
  0
ARC
  5
6798
330
68B2
100
AcDbEntity
  8
TEXT
100
AcDbCircle
 10
1.311464011908993
 20
0.8406857593739154
 30
0.0
 40
0.0676855811441166
100
AcDbArc
 50
90.0
 51
153.7768192527749
  0
LWPOLYLINE
  5
6799
330
68B2
100
AcDbEntity
  8
TEXT
100
AcDbPolyline
 90
        2
 70
     0
 43
0.0
 10
1.249712157546158
 20
0.7869409205988589
 42
0.2901071551932823
 10
1.292788090413793
 20
0.7434499756484208
 42
5.328517124445801
  0
ARC
  5
679D
330
68B2
100
AcDbEntity
  8
TEXT
100
AcDbCircle
 10
0.606332634237508
 20
0.8032423669864705
 30
0.0
 40
0.0601160179737537
100
AcDbArc
 50
180.0000000000003
 51
264.0521544866073
  0
LINE
  5
679E
330
68B2
100
AcDbEntity
  8
TEXT
100
AcDbLine
 10
0.6098479898630558
 20
1.044310926231069
 30
0.0
 11
0.5498053850190488
 21
1.044310926231069
 31
0.0
  0
ARC
  5
679F
330
68B2
100
AcDbEntity
  8
TEXT
100
AcDbCircle
 10
0.3740736321205373
 20
0.9278355491904299
 30
0.0
 40
0.0820874594465043
100
AcDbArc
 50
90.0
 51
270.0
  0
LWPOLYLINE
  5
67A0
330
68B2
100
AcDbEntity
  8
TEXT
100
AcDbPolyline
 90
        2
 70
     0
 43
0.0001332181640625
 10
-0.0340127009804272
 20
0.9366530184025556
 10
-0.0440040632851178
 20
1.009923008636935
  0
LWPOLYLINE
  5
67A4
330
68B2
100
AcDbEntity
  8
TEXT
100
AcDbPolyline
 90
        2
 70
     0
 43
0.0001332181640625
 10
-0.0440040632851178
 20
0.9832793758244342
 10
-0.0340127009804272
 20
0.9233312019963086
  0
LWPOLYLINE
  5
67A8
330
68B2
100
AcDbEntity
  8
TEXT
100
AcDbPolyline
 90
        3
 70
     0
 43
0.0006660908203125
 10
0.1091968253867597
 20
0.8966875691838076
 10
0.1091968253867597
 20
1.009923008636935
 10
-0.0040386140663662
 20
1.009923008636935
  0
LWPOLYLINE
  5
67AD
330
68B2
100
AcDbEntity
  8
TEXT
100
AcDbPolyline
 90
        3
 70
     0
 43
0.0006660908203125
 10
0.0825531925742587
 20
0.8966875691838076
 10
0.0825531925742587
 20
0.9832793758244342
 10
-0.0040386140663662
 20
0.9832793758244342
  0
LWPOLYLINE
  5
67B2
330
68B2
100
AcDbEntity
  8
TEXT
100
AcDbPolyline
 90
        2
 70
     0
 43
0.0001332181640625
 10
0.0825531925742587
 20
0.9832793758244342
 10
0.0226050187461349
 20
0.9233312019963086
  0
LWPOLYLINE
  5
67B6
330
68B2
100
AcDbEntity
  8
TEXT
100
AcDbPolyline
 90
        2
 70
     0
 43
0.0001332181640625
 10
-0.0040386140663662
 20
0.9832793758244342
 10
-0.014029976371055
 20
0.9233312019963086
  0
LWPOLYLINE
  5
67BA
330
68B2
100
AcDbEntity
  8
TEXT
100
AcDbPolyline
 90
        2
 70
     0
 43
0.0001332181640625
 10
-0.0040386140663662
 20
1.009923008636935
 10
-0.014029976371055
 20
0.9366530184025556
  0
LWPOLYLINE
  5
67BE
330
68B2
100
AcDbEntity
  8
TEXT
100
AcDbPolyline
 90
        2
 70
     0
 43
0.0001332181640625
 10
0.0359268351523836
 20
0.8866962068791188
 10
0.1091968253867597
 20
0.8966875691838076
  0
LWPOLYLINE
  5
67C2
330
68B2
100
AcDbEntity
  8
TEXT
100
AcDbPolyline
 90
        2
 70
     0
 43
0.0001332181640625
 10
0.0825531925742587
 20
0.8966875691838076
 10
0.0226050187461349
 20
0.8866962068791188
  0
LWPOLYLINE
  5
67C6
330
68B2
100
AcDbEntity
  8
TEXT
100
AcDbPolyline
 90
        2
 70
     0
 43
0.0001332181640625
 10
0.1091968253867597
 20
0.8567221199650596
 10
0.0359268351523836
 20
0.8667134822697448
  0
LWPOLYLINE
  5
67CA
330
68B2
100
AcDbEntity
  8
TEXT
100
AcDbPolyline
 90
        2
 70
     0
 43
0.0001332181640625
 10
0.0825531925742587
 20
0.8567221199650596
 10
0.0226050187461349
 20
0.8667134822697448
  0
LWPOLYLINE
  5
67CE
330
68B2
100
AcDbEntity
  8
TEXT
100
AcDbPolyline
 90
        2
 70
     0
 43
0.0001332181640625
 10
0.0825531925742587
 20
0.7701303133244331
 10
0.0226050187461349
 20
0.8300784871525586
  0
LWPOLYLINE
  5
67D2
330
68B2
100
AcDbEntity
  8
TEXT
100
AcDbPolyline
 90
        3
 70
     0
 43
0.0006660908203125
 10
-0.0040386140663662
 20
0.7701303133244331
 10
0.0825531925742587
 20
0.7701303133244331
 10
0.0825531925742587
 20
0.8567221199650596
  0
LWPOLYLINE
  5
67D7
330
68B2
100
AcDbEntity
  8
TEXT
100
AcDbPolyline
 90
        3
 70
     0
 43
0.0006660908203125
 10
-0.0040386140663662
 20
0.743486680511932
 10
0.1091968253867597
 20
0.743486680511932
 10
0.1091968253867597
 20
0.8567221199650596
  0
LWPOLYLINE
  5
67DC
330
68B2
100
AcDbEntity
  8
TEXT
100
AcDbPolyline
 90
        5
 70
     0
 43
0.0001332181640625
 10
-0.0340127009804272
 20
0.816756670746308
 10
-0.0340127009804272
 20
0.8300784871525586
 10
-0.0706476960976152
 20
0.8300784871525586
 10
-0.0706476960976152
 20
0.8667134822697448
 10
-0.0839695125038658
 20
0.8667134822697448
  0
LWPOLYLINE
  5
67E3
330
68B2
100
AcDbEntity
  8
TEXT
100
AcDbPolyline
 90
        2
 70
     0
 43
0.0006660908203125
 10
-0.0440040632851178
 20
0.7701303133244331
 10
-0.0440040632851178
 20
0.743486680511932
  0
LWPOLYLINE
  5
67E7
330
68B2
100
AcDbEntity
  8
TEXT
100
AcDbPolyline
 90
        2
 70
     0
 43
0.0001332181640625
 10
-0.0440040632851178
 20
0.7701303133244331
 10
-0.0340127009804272
 20
0.8300784871525586
  0
LWPOLYLINE
  5
67EB
330
68B2
100
AcDbEntity
  8
TEXT
100
AcDbPolyline
 90
        2
 70
     0
 43
0.0001332181640625
 10
-0.0440040632851178
 20
0.743486680511932
 10
-0.0340127009804272
 20
0.816756670746308
  0
LWPOLYLINE
  5
67EF
330
68B2
100
AcDbEntity
  8
TEXT
100
AcDbPolyline
 90
        5
 70
     0
 43
0.0001332181640625
 10
-0.0839695125038658
 20
0.8866962068791188
 10
-0.070647696097617
 20
0.8866962068791188
 10
-0.070647696097617
 20
0.9233312019963086
 10
-0.0340127009804272
 20
0.9233312019963086
 10
-0.0340127009804272
 20
0.9366530184025556
  0
LWPOLYLINE
  5
67F6
330
68B2
100
AcDbEntity
  8
TEXT
100
AcDbPolyline
 90
        5
 70
     0
 43
0.0001332181640625
 10
-0.014029976371055
 20
0.9366530184025556
 10
-0.014029976371055
 20
0.9233312019963086
 10
0.0226050187461349
 20
0.9233312019963086
 10
0.0226050187461349
 20
0.8866962068791188
 10
0.0359268351523836
 20
0.8866962068791188
  0
LWPOLYLINE
  5
67FD
330
68B2
100
AcDbEntity
  8
TEXT
100
AcDbPolyline
 90
        2
 70
     0
 43
0.0001332181640625
 10
-0.0040386140663662
 20
0.7701303133244331
 10
-0.014029976371055
 20
0.8300784871525586
  0
LWPOLYLINE
  5
6801
330
68B2
100
AcDbEntity
  8
TEXT
100
AcDbPolyline
 90
        2
 70
     0
 43
0.0001332181640625
 10
-0.014029976371055
 20
0.816756670746308
 10
-0.0040386140663662
 20
0.743486680511932
  0
LWPOLYLINE
  5
6805
330
68B2
100
AcDbEntity
  8
TEXT
100
AcDbPolyline
 90
        2
 70
     0
 43
0.0006660908203125
 10
-0.0040386140663662
 20
0.7701303133244331
 10
-0.0040386140663662
 20
0.743486680511932
  0
LWPOLYLINE
  5
6809
330
68B2
100
AcDbEntity
  8
TEXT
100
AcDbPolyline
 90
        5
 70
     0
 43
0.0001332181640625
 10
0.0359268351523836
 20
0.8667134822697448
 10
0.0226050187461349
 20
0.8667134822697448
 10
0.0226050187461349
 20
0.8300784871525586
 10
-0.014029976371055
 20
0.8300784871525586
 10
-0.014029976371055
 20
0.816756670746308
  0
LWPOLYLINE
  5
6810
330
68B2
100
AcDbEntity
  8
TEXT
100
AcDbPolyline
 90
        2
 70
     0
 43
0.0006660908203125
 10
0.0825531925742587
 20
0.8966875691838076
 10
0.1091968253867597
 20
0.8966875691838076
  0
LWPOLYLINE
  5
6814
330
68B2
100
AcDbEntity
  8
TEXT
100
AcDbPolyline
 90
        2
 70
     0
 43
0.0006660908203125
 10
0.0825531925742587
 20
0.8567221199650596
 10
0.1091968253867597
 20
0.8567221199650596
  0
LINE
  5
6818
330
68B2
100
AcDbEntity
  8
TEXT
100
AcDbLine
 10
0.3793109622347845
 20
0.9456463139801662
 30
0.0
 11
0.5462166162637559
 21
0.9456463139801662
 31
0.0
  0
LINE
  5
6819
330
68B2
100
AcDbEntity
  8
TEXT
100
AcDbLine
 10
0.4449110984790856
 20
0.9098415923695384
 30
0.0
 11
0.3793109622347845
 21
0.9098415923695384
 31
0.0
  0
LINE
  5
681A
330
68B2
100
AcDbEntity
  8
TEXT
100
AcDbLine
 10
0.2919861726740329
 20
0.7434499756484208
 30
0.0
 11
0.4449110984790856
 21
0.7434499756484208
 31
0.0
  0
LINE
  5
681B
330
68B2
100
AcDbEntity
  8
TEXT
100
AcDbLine
 10
0.4498514723853653
 20
0.81180698198186
 30
0.0
 11
0.2919861726740311
 21
0.81180698198186
 31
0.0
  0
LINE
  5
681C
330
68B2
100
AcDbEntity
  8
TEXT
100
AcDbLine
 10
0.3740736321205365
 20
0.8457480897439246
 30
0.0
 11
0.4498514723853653
 21
0.8457480897439246
 31
0.0
  0
ARC
  5
681D
330
68B2
100
AcDbEntity
  8
TEXT
100
AcDbCircle
 10
0.3793109622347854
 20
0.9277439531748541
 30
0.0
 40
0.017902360805315
100
AcDbArc
 50
90.0
 51
270.0
  0
LINE
  5
681E
330
68B2
100
AcDbEntity
  8
TEXT
100
AcDbLine
 10
0.2919861726740311
 20
0.81180698198186
 30
0.0
 11
0.2919861726740329
 21
0.7434499756484208
 31
0.0
  0
LINE
  5
681F
330
68B2
100
AcDbEntity
  8
TEXT
100
AcDbLine
 10
0.5462166162637559
 20
0.9456463139801662
 30
0.0
 11
0.5462166162637559
 21
0.8032423669864705
 31
0.0
  0
ARC
  5
6820
330
68B2
100
AcDbEntity
  8
TEXT
100
AcDbCircle
 10
0.4449110984790865
 20
0.8266457840089778
 30
0.0
 40
0.0831958083605586
100
AcDbArc
 50
270.0
 51
90.0
  0
ARC
  5
6821
330
68B2
100
AcDbEntity
  8
TEXT
100
AcDbCircle
 10
0.4498514723853662
 20
0.8287775358628941
 30
0.0
 40
0.0169705538810321
100
AcDbArc
 50
270.0
 51
90.0
  0
LWPOLYLINE
  5
6822
330
68B2
100
AcDbEntity
  8
TEXT
100
AcDbPolyline
 90
        2
 70
     0
 43
0.0006660908203125
 10
-0.0440040632851178
 20
0.9832793758244342
 10
-0.0440040632851178
 20
1.009923008636935
  0
LWPOLYLINE
  5
6826
330
68B2
100
AcDbEntity
  8
TEXT
100
AcDbPolyline
 90
        2
 70
     0
 43
0.0006660908203125
 10
-0.0040386140663662
 20
0.9832793758244342
 10
-0.0040386140663662
 20
1.009923008636935
  0
LINE
  5
682A
330
68B2
100
AcDbEntity
  8
TEXT
100
AcDbLine
 10
0.5498053850190488
 20
1.009923008636931
 30
0.0
 11
0.3740736321205365
 21
1.009923008636931
 31
0.0
  0
LINE
  5
682B
330
68B2
100
AcDbEntity
  8
TEXT
100
AcDbLine
 10
0.5498053850190488
 20
1.044310926231069
 30
0.0
 11
0.5498053850190488
 21
1.009923008636931
 31
0.0
  0
LINE
  5
682C
330
68B2
100
AcDbEntity
  8
TEXT
100
AcDbLine
 10
0.740277277038901
 20
0.9090510125238111
 30
0.0
 11
0.6816469560069632
 21
1.009923008636931
 31
0.0
  0
LINE
  5
682D
330
68B2
100
AcDbEntity
  8
TEXT
100
AcDbLine
 10
0.7990258398447665
 20
1.009923008636931
 30
0.0
 11
0.740277277038901
 21
0.9090510125238111
 31
0.0
  0
LINE
  5
682E
330
68B2
100
AcDbEntity
  8
TEXT
100
AcDbLine
 10
0.8959564652045077
 20
0.8258378137514199
 30
0.0
 11
0.8959564652045077
 21
1.077934486375742
 31
0.0
  0
LINE
  5
682F
330
68B2
100
AcDbEntity
  8
TEXT
100
AcDbLine
 10
0.9282683193421679
 20
1.009923008636931
 30
0.0
 11
0.9282683193421679
 21
0.8090588019045235
 31
0.0
  0
LINE
  5
6830
330
68B2
100
AcDbEntity
  8
TEXT
100
AcDbLine
 10
0.9282683193421679
 20
0.8090588019045235
 30
0.0
 11
0.9112746824575665
 21
0.8090588019045235
 31
0.0
  0
LINE
  5
6831
330
68B2
100
AcDbEntity
  8
TEXT
100
AcDbLine
 10
0.8970960387007025
 20
0.7434499756484208
 30
0.0
 11
0.9950993724001371
 21
0.7434499756484208
 31
0.0
  0
LINE
  5
6832
330
68B2
100
AcDbEntity
  8
TEXT
100
AcDbLine
 10
0.7306770400419467
 20
0.7634084817534337
 30
0.0
 11
0.8279767461353912
 21
0.9277586926887018
 31
0.0
  0
ARC
  5
6833
330
68B2
100
AcDbEntity
  8
TEXT
100
AcDbCircle
 10
0.6966334801297327
 20
0.7829976979221165
 30
0.0
 40
0.0392772371940762
100
AcDbArc
 50
270.1604552698595
 51
330.0831797321295
  0
LINE
  5
6834
330
68B2
100
AcDbEntity
  8
TEXT
100
AcDbLine
 10
0.6001032237438615
 20
0.7434499756484208
 30
0.0
 11
0.6967434748188559
 21
0.7437206147467031
 31
0.0
  0
LWPOLYLINE
  5
6835
330
68B2
100
AcDbEntity
  8
TEXT
100
AcDbPolyline
 90
        6
 70
     1
 43
0.0
 10
0.6426270273190112
 20
0.9456463139801662
 10
0.612310433098803
 20
0.9456463139801662
 10
0.612310433098803
 20
0.8225353159252719
 42
0.407328721240804
 10
0.6238540842602794
 20
0.8107164012488858
 10
0.6844757833050102
 20
0.8107164012488858
 10
0.7019411237123281
 20
0.843528630292365
  0
LINE
  5
683D
330
68B2
100
AcDbEntity
  8
TEXT
100
AcDbLine
 10
0.8279767461353912
 20
0.9277586926887018
 30
0.0
 11
0.8279767461353912
 21
0.7950013178633455
 31
0.0
  0
ARC
  5
683E
330
68B2
100
AcDbEntity
  8
TEXT
100
AcDbCircle
 10
0.9112746824575648
 20
0.8244406081479489
 30
0.0
 40
0.0153818062434269
100
AcDbArc
 50
174.7883570302258
 51
270.0
  0
LWPOLYLINE
  5
683F
330
68B2
100
AcDbEntity
  8
TEXT
100
AcDbPolyline
 90
        2
 70
     0
 43
0.0
 10
0.8279767461353895
 20
0.7950013178633491
 42
0.3318488747599744
 10
0.8970960387007025
 20
0.7434499756484208
 42
-6.868794160588311
  0
LINE
  5
6843
330
68B2
100
AcDbEntity
  8
TEXT
100
AcDbLine
 10
1.052488441389398
 20
0.7434499756484208
 30
0.0
 11
1.119546488171238
 21
0.7434499756484208
 31
0.0
  0
LINE
  5
6844
330
68B2
100
AcDbEntity
  8
TEXT
100
AcDbLine
 10
1.052488441389398
 20
0.9380925248140563
 30
0.0
 11
1.052488441389398
 21
0.7434499756484208
 31
0.0
  0
LINE
  5
6845
330
68B2
100
AcDbEntity
  8
TEXT
100
AcDbLine
 10
0.9950993724001371
 20
0.9456463139801662
 30
0.0
 11
1.044934652223284
 21
0.9456463139801662
 31
0.0
  0
LINE
  5
6846
330
68B2
100
AcDbEntity
  8
TEXT
100
AcDbLine
 10
0.9950993724001371
 20
0.7434499756484208
 30
0.0
 11
0.9950993724001371
 21
0.9456463139801662
 31
0.0
  0
LWPOLYLINE
  5
6847
330
68B2
100
AcDbEntity
  8
TEXT
100
AcDbPolyline
 90
        2
 70
     0
 43
0.0
 10
1.044934652223282
 20
0.9456463139801662
 42
-0.4142135623731017
 10
1.052488441389396
 20
0.9380925248140563
 42
-0.9999999999999998
  0
LINE
  5
684B
330
68B2
100
AcDbEntity
  8
TEXT
100
AcDbLine
 10
1.250744653000968
 20
0.9456463139801662
 30
0.0
 11
1.250744653000968
 21
0.8705939079059596
 31
0.0
  0
LINE
  5
684C
330
68B2
100
AcDbEntity
  8
TEXT
100
AcDbLine
 10
1.119546488171238
 20
0.9456463139801662
 30
0.0
 11
1.173680085092188
 21
0.9456463139801662
 31
0.0
  0
LINE
  5
684D
330
68B2
100
AcDbEntity
  8
TEXT
100
AcDbLine
 10
1.119546488171238
 20
0.7434499756484208
 30
0.0
 11
1.119546488171238
 21
0.9456463139801662
 31
0.0
  0
LWPOLYLINE
  5
684E
330
68B2
100
AcDbEntity
  8
TEXT
100
AcDbPolyline
 90
        2
 70
     0
 43
0.0
 10
1.173680085092186
 20
0.9456463139801662
 42
-0.4142135623731017
 10
1.1812338742583
 20
0.9380925248140563
 42
-0.9999999999999998
  0
LWPOLYLINE
  5
6852
330
68B2
100
AcDbEntity
  8
TEXT
100
AcDbPolyline
 90
        4
 70
     0
 43
0.0
 10
1.1812338742583
 20
0.9380925248140563
 10
1.1812338742583
 20
0.7434499756484208
 10
1.249712157546158
 20
0.7434499756484208
 10
1.249712157546158
 20
0.7869409205988589
 42
-1.714843617202739
  0
LINE
  5
6858
330
68B2
100
AcDbEntity
  8
TEXT
100
AcDbLine
 10
0.6098479898630558
 20
1.009923008636931
 30
0.0
 11
0.6098479898630558
 21
1.044310926231069
 31
0.0
  0
LINE
  5
6859
330
68B2
100
AcDbEntity
  8
TEXT
100
AcDbLine
 10
0.6816469560069632
 20
1.009923008636931
 30
0.0
 11
0.6098479898630558
 21
1.009923008636931
 31
0.0
  0
LINE
  5
685A
330
68B2
100
AcDbEntity
  8
TEXT
100
AcDbLine
 10
0.8291477526381427
 20
1.009923008636931
 30
0.0
 11
0.7990258398447665
 21
1.009923008636931
 31
0.0
  0
LINE
  5
685B
330
68B2
100
AcDbEntity
  8
TEXT
100
AcDbLine
 10
0.8291477526381427
 20
1.077934486375742
 30
0.0
 11
0.8291477526381427
 21
1.009923008636931
 31
0.0
  0
LINE
  5
685C
330
68B2
100
AcDbEntity
  8
TEXT
100
AcDbLine
 10
0.8959564652045077
 20
1.077934486375742
 30
0.0
 11
0.8291477526381427
 21
1.077934486375742
 31
0.0
  0
LWPOLYLINE
  5
685D
330
68B2
100
AcDbEntity
  8
TEXT
100
AcDbPolyline
 90
        3
 70
     0
 43
0.0
 10
1.21636822480251
 20
1.009923008636935
 10
1.098068065986465
 20
1.009923008636935
 10
1.098068065986465
 20
0.9827555118760393
 42
-1.960274751411753
  0
LINE
  5
6862
330
68B2
100
AcDbEntity
  8
TEXT
100
AcDbLine
 10
1.062286375273304
 20
1.009923008636931
 30
0.0
 11
0.9282683193421679
 21
1.009923008636931
 31
0.0
  0
LWPOLYLINE
  5
6863
330
68B2
100
AcDbEntity
  8
TEXT
100
AcDbPolyline
 90
        2
 70
     0
 43
0.0
 10
1.062286375273304
 20
1.009923008636935
 42
-0.3328679258950098
 10
1.098068065986465
 20
0.9827555118760393
 42
6.772930709997214
  0
LINE
  5
6867
330
68B2
100
AcDbEntity
  8
TEXT
100
AcDbLine
 10
1.252149915515676
 20
1.009923008636931
 30
0.0
 11
1.252149915515676
 21
0.9816004628672878
 31
0.0
  0
LWPOLYLINE
  5
6868
330
68B2
100
AcDbEntity
  8
TEXT
100
AcDbPolyline
 90
        2
 70
     0
 43
0.0
 10
1.21636822480251
 20
1.009923008636935
 42
-0.3277054968067132
 10
1.252149915515675
 20
0.9816004628672914
 42
6.667889725900311
  0
LINE
  5
686C
330
68B2
100
AcDbEntity
  8
TEXT
100
AcDbLine
 10
1.465941763607776
 20
0.9047110300835043
 30
0.0
 11
1.422190992425875
 21
0.9869613060796496
 31
0.0
  0
LINE
  5
686D
330
68B2
100
AcDbEntity
  8
TEXT
100
AcDbLine
 10
1.465941763607776
 20
1.009923008636931
 30
0.0
 11
1.465941763607776
 21
0.9047110300835043
 31
0.0
  0
LINE
  5
686E
330
68B2
100
AcDbEntity
  8
TEXT
100
AcDbLine
 10
1.693625502546145
 20
0.9340576822253936
 30
0.0
 11
1.693625502546145
 21
1.075387214404532
 31
0.0
  0
LINE
  5
686F
330
68B2
100
AcDbEntity
  8
TEXT
100
AcDbLine
 10
1.74072366110213
 20
1.009923008636931
 30
0.0
 11
1.693625502546145
 21
0.9340576822253936
 31
0.0
  0
LINE
  5
6870
330
68B2
100
AcDbEntity
  8
TEXT
100
AcDbLine
 10
1.751158377866053
 20
0.9000297656959581
 30
0.0
 11
1.815715493831758
 21
1.009923008636931
 31
0.0
  0
LINE
  5
6871
330
68B2
100
AcDbEntity
  8
TEXT
100
AcDbLine
 10
1.629790511323372
 20
0.7434499756484208
 30
0.0
 11
1.694168695641993
 21
0.7434499756484208
 31
0.0
  0
LWPOLYLINE
  5
6872
330
68B2
100
AcDbEntity
  8
TEXT
100
AcDbPolyline
 90
        2
 70
     0
 43
0.0
 10
1.469881440912814
 20
0.7869409205988589
 42
-0.2901071551932486
 10
1.42680550804517
 20
0.7434499756484208
 42
-5.328517124445184
  0
ARC
  5
6876
330
68B2
100
AcDbEntity
  8
TEXT
100
AcDbCircle
 10
1.357950926388255
 20
0.9172869389801689
 30
0.0
 40
0.028359375
100
AcDbArc
 50
25.78218179591245
 51
90.0
  0
LINE
  5
6877
330
68B2
100
AcDbEntity
  8
TEXT
100
AcDbLine
 10
1.393752001692378
 20
0.908371340518034
 30
0.0
 11
1.383487241278814
 21
0.9296218800907283
 31
0.0
  0
LINE
  5
6878
330
68B2
100
AcDbEntity
  8
TEXT
100
AcDbLine
 10
1.311464011908995
 20
0.908371340518034
 30
0.0
 11
1.393752001692378
 21
0.908371340518034
 31
0.0
  0
LWPOLYLINE
  5
6879
330
68B2
100
AcDbEntity
  8
TEXT
100
AcDbPolyline
 90
        4
 70
     1
 43
0.0
 10
1.406683042975277
 20
0.8464139536324459
 10
1.318022724315419
 20
0.8464139536324459
 42
0.9999999999999998
 10
1.318022724315419
 20
0.8040154131285852
 10
1.406683042975277
 20
0.8040154131285852
 42
1.0
  0
LWPOLYLINE
  5
687F
330
68B2
100
AcDbEntity
  8
TEXT
100
AcDbPolyline
 90
        2
 70
     0
 43
0.0
 10
1.292788090413793
 20
0.7434499756484208
 10
1.42680550804517
 20
0.7434499756484208
 42
0.9999999999999998
  0
LINE
  5
6883
330
68B2
100
AcDbEntity
  8
TEXT
100
AcDbLine
 10
1.553142530030809
 20
0.9456463139801662
 30
0.0
 11
1.629790511323367
 21
0.9456463139801662
 31
0.0
  0
LINE
  5
6884
330
68B2
100
AcDbEntity
  8
TEXT
100
AcDbLine
 10
1.629790511323367
 20
0.9456463139801662
 30
0.0
 11
1.629790511323372
 21
0.7434499756484208
 31
0.0
  0
ARC
  5
6885
330
68B2
100
AcDbEntity
  8
TEXT
100
AcDbCircle
 10
1.553142530030807
 20
0.9207404386975035
 30
0.0
 40
0.0249058752826653
100
AcDbArc
 50
89.99971217465335
 51
179.9999999999985
  0
LINE
  5
6886
330
68B2
100
AcDbEntity
  8
TEXT
100
AcDbLine
 10
1.52823665474815
 20
0.7434499756484208
 30
0.0
 11
1.528236654748145
 21
0.9207404810798891
 31
0.0
  0
LWPOLYLINE
  5
6887
330
68B2
100
AcDbEntity
  8
TEXT
100
AcDbPolyline
 90
        2
 70
     0
 43
0.0
 10
1.469881440912814
 20
0.7434499756484208
 10
1.528236654748148
 20
0.7434499756484208
  0
LWPOLYLINE
  5
688B
330
68B2
100
AcDbEntity
  8
TEXT
100
AcDbPolyline
 90
        2
 70
     0
 43
0.0
 10
1.469881440912814
 20
0.7869409205988589
 10
1.469881440912814
 20
0.7434499756484208
  0
LINE
  5
688F
330
68B2
100
AcDbEntity
  8
TEXT
100
AcDbLine
 10
1.846650601229663
 20
0.7434499756484208
 30
0.0
 11
1.751158377866053
 21
0.9000297656959581
 31
0.0
  0
LINE
  5
6890
330
68B2
100
AcDbEntity
  8
TEXT
100
AcDbLine
 10
1.770072228853457
 20
0.7434499756484208
 30
0.0
 11
1.846650601229663
 21
0.7434499756484208
 31
0.0
  0
LINE
  5
6891
330
68B2
100
AcDbEntity
  8
TEXT
100
AcDbLine
 10
1.694168695641993
 20
0.8750295441246009
 30
0.0
 11
1.770072228853457
 21
0.7434499756484208
 31
0.0
  0
LINE
  5
6892
330
68B2
100
AcDbEntity
  8
TEXT
100
AcDbLine
 10
1.694168695641993
 20
0.7434499756484208
 30
0.0
 11
1.694168695641993
 21
0.8750295441246009
 31
0.0
  0
LINE
  5
6893
330
68B2
100
AcDbEntity
  8
TEXT
100
AcDbLine
 10
1.693625502546145
 20
1.075387214404532
 30
0.0
 11
1.625310623996872
 21
1.075387214404532
 31
0.0
  0
ARC
  5
6894
330
68B2
100
AcDbEntity
  8
TEXT
100
AcDbCircle
 10
1.384954884955666
 20
0.9683394415160293
 30
0.0
 40
0.0416329381542859
100
AcDbArc
 50
26.56974201007528
 51
87.20939649401342
  0
LINE
  5
6895
330
68B2
100
AcDbEntity
  8
TEXT
100
AcDbLine
 10
1.529838669907277
 20
1.009923008636931
 30
0.0
 11
1.465941763607776
 21
1.009923008636931
 31
0.0
  0
LINE
  5
6896
330
68B2
100
AcDbEntity
  8
TEXT
100
AcDbLine
 10
1.529838669907277
 20
0.982375358776057
 30
0.0
 11
1.529838669907277
 21
1.009923008636931
 31
0.0
  0
ARC
  5
6897
330
68B2
100
AcDbEntity
  8
TEXT
100
AcDbCircle
 10
1.561031486970385
 20
0.9786772813546669
 30
0.0
 40
0.0314112657011332
100
AcDbArc
 50
95.88484768694724
 51
173.2388340632136
  0
LINE
  5
6898
330
68B2
100
AcDbEntity
  8
TEXT
100
AcDbLine
 10
1.625310623996867
 20
1.009923008636931
 30
0.0
 11
1.55781090634735
 21
1.009923008636931
 31
0.0
  0
LINE
  5
6899
330
68B2
100
AcDbEntity
  8
TEXT
100
AcDbLine
 10
1.625310623996872
 20
1.075387214404532
 30
0.0
 11
1.625310623996867
 21
1.009923008636931
 31
0.0
  0
LINE
  5
689A
330
68B2
100
AcDbEntity
  8
TEXT
100
AcDbLine
 10
1.815715493831758
 20
1.009923008636931
 30
0.0
 11
1.740723661102132
 21
1.009923008636931
 31
0.0
  0
ENDSEC
  0
SECTION
  2
OBJECTS
  0
DICTIONARY
  5
68A6
330
0
100
AcDbDictionary
  3
ACAD_GROUP
350
68A7
  3
ACAD_LAYOUT
350
68CD
  3
ACAD_MLINESTYLE
350
68A8
  3
ACAD_PLOTSETTINGS
350
68CE
  3
ACAD_PLOTSTYLENAME
350
68CB
  3
ACDBHEADERROUNDTRIPXREC
350
68D8
  3
ACDBVARIABLEDICTIONARY
350
68D5
  0
DICTIONARY
  5
68FA
330
68B2
100
AcDbDictionary
280
     1
  3
ACAD_LAYOUTSELFREF
360
68FB
  0
DICTIONARY
  5
68F8
330
68AF
100
AcDbDictionary
280
     1
  3
ACAD_LAYOUTSELFREF
360
68F9
  0
DICTIONARY
  5
68A7
102
{ACAD_REACTORS
330
68A6
102
}
330
68A6
100
AcDbDictionary
  0
DICTIONARY
  5
68CD
102
{ACAD_REACTORS
330
68A6
102
}
330
68A6
100
AcDbDictionary
  0
DICTIONARY
  5
68A8
102
{ACAD_REACTORS
330
68A6
102
}
330
68A6
100
AcDbDictionary
  3
STANDARD
350
68B5
  0
DICTIONARY
  5
68CE
102
{ACAD_REACTORS
330
68A6
102
}
330
68A6
100
AcDbDictionary
  0
ACDBDICTIONARYWDFLT
  5
68CB
102
{ACAD_REACTORS
330
68A6
102
}
330
68A6
100
AcDbDictionary
281
     1
  3
Normal
350
68CC
100
AcDbDictionaryWithDefault
340
68CC
  0
DICTIONARY
  5
68D8
102
{ACAD_REACTORS
330
68A6
102
}
330
68A6
100
AcDbDictionary
  3
CEPSNTYPE
350
68E2
  3
FINGERPRINTGUID
350
68E3
  3
HYPERLINKBASE
350
68DB
  3
INSUNITS
350
68E1
  3
LAYOUTDICT
350
68DD
  3
LWETCUNION
350
68E0
  3
PLOTSETDICT
350
68DE
  3
PLOTSTYLNAMDICT
350
68DF
  3
PSVPSCALE
350
68E5
  3
PUCSBASE
350
68E8
  3
PUCSORGBACK
350
68EE
  3
PUCSORGBOTTOM
350
68EA
  3
PUCSORGFRONT
350
68ED
  3
PUCSORGLEFT
350
68EB
  3
PUCSORGRIGHT
350
68EC
  3
PUCSORGTOP
350
68E9
  3
PUCSORTHOREF
350
68E6
  3
PUCSORTHOVIEW
350
68E7
  3
STYLESHEET
350
68DC
  3
TSTACKALIGN
350
68D9
  3
TSTACKSIZE
350
68DA
  3
UCSBASE
350
68F1
  3
UCSORGBACK
350
68F7
  3
UCSORGBOTTOM
350
68F3
  3
UCSORGFRONT
350
68F6
  3
UCSORGLEFT
350
68F4
  3
UCSORGRIGHT
350
68F5
  3
UCSORGTOP
350
68F2
  3
UCSORTHOREF
350
68EF
  3
UCSORTHOVIEW
350
68F0
  3
VERSIONGUID
350
68E4
  0
DICTIONARY
  5
68D5
102
{ACAD_REACTORS
330
68A6
102
}
330
68A6
100
AcDbDictionary
  3
DIMASSOC
350
68D6
  0
XRECORD
  5
68FB
102
{ACAD_REACTORS
330
68FA
102
}
330
68FA
100
AcDbXrecord
340
68B2
  0
XRECORD
  5
68F9
102
{ACAD_REACTORS
330
68F8
102
}
330
68F8
100
AcDbXrecord
340
68AF
  0
MLINESTYLE
  5
68B5
102
{ACAD_REACTORS
330
68A8
102
}
330
68A8
100
AcDbMlineStyle
  2
STANDARD
 70
     0
  3

 62
     0
 51
90.0
 52
90.0
 71
     2
 49
0.5
 62
   256
  6
BYLAYER
 49
-0.5
 62
   256
  6
BYLAYER
  0
ACDBPLACEHOLDER
  5
68CC
102
{ACAD_REACTORS
330
68CB
102
}
330
68CB
100
AcDbPlaceHolder
280
     0
  0
XRECORD
  5
68E2
102
{ACAD_REACTORS
330
68D8
102
}
330
68D8
100
AcDbXrecord
 90
        0
  0
XRECORD
  5
68E3
102
{ACAD_REACTORS
330
68D8
102
}
330
68D8
100
AcDbXrecord
  1
{505B7D30-8DB3-11D6-88E6-0090279574E7}
  0
XRECORD
  5
68DB
102
{ACAD_REACTORS
330
68D8
102
}
330
68D8
100
AcDbXrecord
  1

  0
XRECORD
  5
68E1
102
{ACAD_REACTORS
330
68D8
102
}
330
68D8
100
AcDbXrecord
 90
        0
  0
XRECORD
  5
68DD
102
{ACAD_REACTORS
330
68D8
102
}
330
68D8
100
AcDbXrecord
340
68CD
  0
XRECORD
  5
68E0
102
{ACAD_REACTORS
330
68D8
102
}
330
68D8
100
AcDbXrecord
 90
    14877
  0
XRECORD
  5
68DE
102
{ACAD_REACTORS
330
68D8
102
}
330
68D8
100
AcDbXrecord
340
68CE
  0
XRECORD
  5
68DF
102
{ACAD_REACTORS
330
68D8
102
}
330
68D8
100
AcDbXrecord
340
68CB
  0
XRECORD
  5
68E5
102
{ACAD_REACTORS
330
68D8
102
}
330
68D8
100
AcDbXrecord
 40
0.0
  0
XRECORD
  5
68E8
102
{ACAD_REACTORS
330
68D8
102
}
330
68D8
100
AcDbXrecord
340
0
  0
XRECORD
  5
68EE
102
{ACAD_REACTORS
330
68D8
102
}
330
68D8
100
AcDbXrecord
 10
0.0
 20
0.0
 30
0.0
  0
XRECORD
  5
68EA
102
{ACAD_REACTORS
330
68D8
102
}
330
68D8
100
AcDbXrecord
 10
0.0
 20
0.0
 30
0.0
  0
XRECORD
  5
68ED
102
{ACAD_REACTORS
330
68D8
102
}
330
68D8
100
AcDbXrecord
 10
0.0
 20
0.0
 30
0.0
  0
XRECORD
  5
68EB
102
{ACAD_REACTORS
330
68D8
102
}
330
68D8
100
AcDbXrecord
 10
0.0
 20
0.0
 30
0.0
  0
XRECORD
  5
68EC
102
{ACAD_REACTORS
330
68D8
102
}
330
68D8
100
AcDbXrecord
 10
0.0
 20
0.0
 30
0.0
  0
XRECORD
  5
68E9
102
{ACAD_REACTORS
330
68D8
102
}
330
68D8
100
AcDbXrecord
 10
0.0
 20
0.0
 30
0.0
  0
XRECORD
  5
68E6
102
{ACAD_REACTORS
330
68D8
102
}
330
68D8
100
AcDbXrecord
340
0
  0
XRECORD
  5
68E7
102
{ACAD_REACTORS
330
68D8
102
}
330
68D8
100
AcDbXrecord
 70
     0
  0
XRECORD
  5
68DC
102
{ACAD_REACTORS
330
68D8
102
}
330
68D8
100
AcDbXrecord
  1

  0
XRECORD
  5
68D9
102
{ACAD_REACTORS
330
68D8
102
}
330
68D8
100
AcDbXrecord
 90
        1
  0
XRECORD
  5
68DA
102
{ACAD_REACTORS
330
68D8
102
}
330
68D8
100
AcDbXrecord
 90
       70
  0
XRECORD
  5
68F1
102
{ACAD_REACTORS
330
68D8
102
}
330
68D8
100
AcDbXrecord
340
0
  0
XRECORD
  5
68F7
102
{ACAD_REACTORS
330
68D8
102
}
330
68D8
100
AcDbXrecord
 10
0.0
 20
0.0
 30
0.0
  0
XRECORD
  5
68F3
102
{ACAD_REACTORS
330
68D8
102
}
330
68D8
100
AcDbXrecord
 10
0.0
 20
0.0
 30
0.0
  0
XRECORD
  5
68F6
102
{ACAD_REACTORS
330
68D8
102
}
330
68D8
100
AcDbXrecord
 10
0.0
 20
0.0
 30
0.0
  0
XRECORD
  5
68F4
102
{ACAD_REACTORS
330
68D8
102
}
330
68D8
100
AcDbXrecord
 10
0.0
 20
0.0
 30
0.0
  0
XRECORD
  5
68F5
102
{ACAD_REACTORS
330
68D8
102
}
330
68D8
100
AcDbXrecord
 10
0.0
 20
0.0
 30
0.0
  0
XRECORD
  5
68F2
102
{ACAD_REACTORS
330
68D8
102
}
330
68D8
100
AcDbXrecord
 10
0.0
 20
0.0
 30
0.0
  0
XRECORD
  5
68EF
102
{ACAD_REACTORS
330
68D8
102
}
330
68D8
100
AcDbXrecord
340
0
  0
XRECORD
  5
68F0
102
{ACAD_REACTORS
330
68D8
102
}
330
68D8
100
AcDbXrecord
 70
     0
  0
XRECORD
  5
68E4
102
{ACAD_REACTORS
330
68D8
102
}
330
68D8
100
AcDbXrecord
  1
{505B7D32-8DB3-11D6-88E6-0090279574E7}
  0
DICTIONARYVAR
  5
68D6
102
{ACAD_REACTORS
330
68D5
102
}
330
68D5
100
DictionaryVariables
280
     0
  1
1
  0
ENDSEC
  0
EOF
