  0
SECTION
  2
HEADER
  9
$ACADVER
  1
AC1014
  9
$ACADMAINTVER
 70
     9
  9
$DWGCODEPAGE
  3
ANSI_1252
  9
$INSBASE
 10
1.52373372736724
 20
1.767660024154589
 30
0.0
  9
$EXTMIN
 10
-0.2192478518599033
 20
0.5752664200720079
 30
0.0
  9
$EXTMAX
 10
3.265971469887224
 20
1.842660024154589
 30
0.0
  9
$LIMMIN
 10
0.0
 20
0.0
  9
$LIMMAX
 10
18.0
 20
12.0
  9
$ORTHOMODE
 70
     1
  9
$REGENMODE
 70
     1
  9
$FILLMODE
 70
     1
  9
$QTEXTMODE
 70
     0
  9
$MIRRTEXT
 70
     0
  9
$DRAGMODE
 70
     2
  9
$LTSCALE
 40
1.0
  9
$OSMODE
 70
    39
  9
$ATTMODE
 70
     1
  9
$TEXTSIZE
 40
0.125
  9
$TRACEWID
 40
0.05
  9
$TEXTSTYLE
  7
ROMANS
  9
$CLAYER
  8
0
  9
$CELTYPE
  6
BYLAYER
  9
$CECOLOR
 62
   256
  9
$CELTSCALE
 40
1.0
  9
$DELOBJ
 70
     1
  9
$DISPSILH
 70
     1
  9
$DIMSCALE
 40
1.0
  9
$DIMASZ
 40
0.125
  9
$DIMEXO
 40
0.125
  9
$DIMDLI
 40
0.375
  9
$DIMRND
 40
0.0
  9
$DIMDLE
 40
0.0
  9
$DIMEXE
 40
0.125
  9
$DIMTP
 40
0.0
  9
$DIMTM
 40
0.0
  9
$DIMTXT
 40
0.125
  9
$DIMCEN
 40
-0.125
  9
$DIMTSZ
 40
0.0
  9
$DIMTOL
 70
     0
  9
$DIMLIM
 70
     0
  9
$DIMTIH
 70
     1
  9
$DIMTOH
 70
     1
  9
$DIMSE1
 70
     0
  9
$DIMSE2
 70
     0
  9
$DIMTAD
 70
     0
  9
$DIMZIN
 70
     4
  9
$DIMBLK
  1

  9
$DIMASO
 70
     1
  9
$DIMSHO
 70
     1
  9
$DIMPOST
  1

  9
$DIMAPOST
  1

  9
$DIMALT
 70
     0
  9
$DIMALTD
 70
     2
  9
$DIMALTF
 40
25.4
  9
$DIMLFAC
 40
1.0
  9
$DIMTOFL
 70
     0
  9
$DIMTVP
 40
0.0
  9
$DIMTIX
 70
     1
  9
$DIMSOXD
 70
     0
  9
$DIMSAH
 70
     0
  9
$DIMBLK1
  1

  9
$DIMBLK2
  1

  9
$DIMSTYLE
  2
STANDARD
  9
$DIMCLRD
 70
     0
  9
$DIMCLRE
 70
     0
  9
$DIMCLRT
 70
     0
  9
$DIMTFAC
 40
1.0
  9
$DIMGAP
 40
0.09
  9
$DIMJUST
 70
     0
  9
$DIMSD1
 70
     0
  9
$DIMSD2
 70
     0
  9
$DIMTOLJ
 70
     1
  9
$DIMTZIN
 70
     4
  9
$DIMALTZ
 70
     0
  9
$DIMALTTZ
 70
     0
  9
$DIMFIT
 70
     3
  9
$DIMUPT
 70
     0
  9
$DIMUNIT
 70
     2
  9
$DIMDEC
 70
     3
  9
$DIMTDEC
 70
     3
  9
$DIMALTU
 70
     2
  9
$DIMALTTD
 70
     2
  9
$DIMTXSTY
  7
ROMANS
  9
$DIMAUNIT
 70
     0
  9
$LUNITS
 70
     2
  9
$LUPREC
 70
     3
  9
$SKETCHINC
 40
0.1
  9
$FILLETRAD
 40
0.03125
  9
$AUNITS
 70
     0
  9
$AUPREC
 70
     0
  9
$MENU
  1
ACAD
  9
$ELEVATION
 40
0.0
  9
$PELEVATION
 40
0.0
  9
$THICKNESS
 40
0.0
  9
$LIMCHECK
 70
     0
  9
$BLIPMODE
 70
     0
  9
$CHAMFERA
 40
0.0
  9
$CHAMFERB
 40
0.0
  9
$CHAMFERC
 40
0.0
  9
$CHAMFERD
 40
0.0
  9
$SKPOLY
 70
     0
  9
$TDCREATE
 40
2448993.344705092
  9
$TDUPDATE
 40
2452458.291153587
  9
$TDINDWG
 40
0.0018133912
  9
$TDUSRTIMER
 40
0.0018133912
  9
$USRTIMER
 70
     1
  9
$ANGBASE
 50
0.0
  9
$ANGDIR
 70
     0
  9
$PDMODE
 70
     0
  9
$PDSIZE
 40
0.0
  9
$PLINEWID
 40
0.0
  9
$COORDS
 70
     2
  9
$SPLFRAME
 70
     0
  9
$SPLINETYPE
 70
     6
  9
$SPLINESEGS
 70
     8
  9
$ATTDIA
 70
     0
  9
$ATTREQ
 70
     1
  9
$HANDLING
 70
 22529
  9
$HANDSEED
  5
28C3
  9
$SURFTAB1
 70
     6
  9
$SURFTAB2
 70
     6
  9
$SURFTYPE
 70
     6
  9
$SURFU
 70
     6
  9
$SURFV
 70
     6
  9
$UCSNAME
  2

  9
$UCSORG
 10
0.0
 20
0.0
 30
0.0
  9
$UCSXDIR
 10
1.0
 20
0.0
 30
0.0
  9
$UCSYDIR
 10
0.0
 20
1.0
 30
0.0
  9
$PUCSNAME
  2

  9
$PUCSORG
 10
0.0
 20
0.0
 30
0.0
  9
$PUCSXDIR
 10
1.0
 20
0.0
 30
0.0
  9
$PUCSYDIR
 10
0.0
 20
1.0
 30
0.0
  9
$USERI1
 70
     0
  9
$USERI2
 70
     0
  9
$USERI3
 70
     0
  9
$USERI4
 70
     0
  9
$USERI5
 70
     0
  9
$USERR1
 40
0.0
  9
$USERR2
 40
0.0
  9
$USERR3
 40
0.0
  9
$USERR4
 40
0.0
  9
$USERR5
 40
0.0
  9
$WORLDVIEW
 70
     1
  9
$SHADEDGE
 70
     3
  9
$SHADEDIF
 70
    70
  9
$TILEMODE
 70
     1
  9
$MAXACTVP
 70
    16
  9
$PINSBASE
 10
1.08158707979159
 20
50.00000000000001
 30
0.868902435088983
  9
$PLIMCHECK
 70
     0
  9
$PEXTMIN
 10
1.000000000000000E+20
 20
1.000000000000000E+20
 30
1.000000000000000E+20
  9
$PEXTMAX
 10
-1.000000000000000E+20
 20
-1.000000000000000E+20
 30
-1.000000000000000E+20
  9
$PLIMMIN
 10
0.0
 20
0.0
  9
$PLIMMAX
 10
12.0
 20
9.0
  9
$UNITMODE
 70
     0
  9
$VISRETAIN
 70
     0
  9
$PLINEGEN
 70
     1
  9
$PSLTSCALE
 70
     0
  9
$TREEDEPTH
 70
  3020
  9
$PICKSTYLE
 70
     1
  9
$CMLSTYLE
  2
STANDARD
  9
$CMLJUST
 70
     0
  9
$CMLSCALE
 40
1.0
  9
$PROXYGRAPHICS
 70
     1
  9
$MEASUREMENT
 70
     0
  0
ENDSEC
  0
SECTION
  2
CLASSES
  0
CLASS
  1
LWPOLYLINE
  2
AcDbPolyline
  3
AutoCAD 2000
 90
        0
280
     0
281
     1
  0
CLASS
  1
ACDBDICTIONARYWDFLT
  2
AcDbDictionaryWithDefault
  3
AutoCAD 2000
 90
        0
280
     0
281
     0
  0
CLASS
  1
ACDBPLACEHOLDER
  2
AcDbPlaceHolder
  3
AutoCAD 2000
 90
        0
280
     0
281
     0
  0
CLASS
  1
LAYOUT
  2
AcDbLayout
  3
AutoCAD 2000
 90
        0
280
     0
281
     0
  0
CLASS
  1
DICTIONARYVAR
  2
AcDbDictionaryVar
  3
AutoCAD 2000
 90
        0
280
     0
281
     0
  0
CLASS
  1
LONG_TRANSACTION
  2
AcDbLongTransaction
  3
AutoCAD 2000
 90
        0
280
     0
281
     0
  0
CLASS
  1
LWPOLYLINE
  2
AcDbPolyline
  3
AutoCAD 2000
 90
        0
280
     0
281
     1
  0
CLASS
  1
HATCH
  2
AcDbHatch
  3
AutoCAD 2000
 90
        0
280
     0
281
     1
  0
CLASS
  1
XRECORD
  2
AcDbXrecord
  3
AutoCAD 2000
 90
        0
280
     0
281
     0
  0
ENDSEC
  0
SECTION
  2
TABLES
  0
TABLE
  2
VPORT
  5
286A
330
0
100
AcDbSymbolTable
 70
     2
  0
VPORT
  5
289E
330
286A
100
AcDbSymbolTableRecord
100
AcDbViewportTableRecord
  2
*ACTIVE
 70
     0
 10
0.0
 20
0.0
 11
1.0
 21
1.0
 12
4.499086180894944
 22
1.209045432518522
 13
0.0
 23
0.0
 14
0.015625
 24
0.015625
 15
0.0
 25
0.0
 16
0.0
 26
0.0
 36
1.0
 17
0.0
 27
0.0
 37
0.0
 40
2.282241331740267
 41
4.320930232558139
 42
50.0
 43
0.0
 44
0.0
 50
0.0
 51
0.0
 71
     0
 72
  2000
 73
     1
 74
     0
 75
     1
 76
     0
 77
     0
 78
     0
  0
ENDTAB
  0
TABLE
  2
LTYPE
  5
2867
330
0
100
AcDbSymbolTable
 70
     1
  0
LTYPE
  5
2874
330
2867
100
AcDbSymbolTableRecord
100
AcDbLinetypeTableRecord
  2
BYBLOCK
 70
     0
  3

 72
    65
 73
     0
 40
0.0
  0
LTYPE
  5
2875
330
2867
100
AcDbSymbolTableRecord
100
AcDbLinetypeTableRecord
  2
BYLAYER
 70
     0
  3

 72
    65
 73
     0
 40
0.0
  0
LTYPE
  5
2876
330
2867
100
AcDbSymbolTableRecord
100
AcDbLinetypeTableRecord
  2
CONTINUOUS
 70
     0
  3
Solid line
 72
    65
 73
     0
 40
0.0
  0
ENDTAB
  0
TABLE
  2
LAYER
  5
2864
330
0
100
AcDbSymbolTable
 70
     2
  0
LAYER
  5
2871
330
2864
100
AcDbSymbolTableRecord
100
AcDbLayerTableRecord
  2
0
 70
     0
 62
     7
  6
CONTINUOUS
  0
LAYER
  5
2881
330
2864
100
AcDbSymbolTableRecord
100
AcDbLayerTableRecord
  2
TEXT
 70
     0
 62
     3
  6
CONTINUOUS
  0
ENDTAB
  0
TABLE
  2
STYLE
  5
2865
330
0
100
AcDbSymbolTable
 70
     3
  0
STYLE
  5
2872
330
2865
100
AcDbSymbolTableRecord
100
AcDbTextStyleTableRecord
  2
STANDARD
 70
     0
 40
0.0
 41
1.0
 50
0.0
 71
     0
 42
0.3125
  3
txt
  4

  0
STYLE
  5
287E
330
2865
100
AcDbSymbolTableRecord
100
AcDbTextStyleTableRecord
  2
ITALICC
 70
     0
 40
0.0
 41
1.0
 50
0.0
 71
     0
 42
0.125
  3
italicc
  4

  0
STYLE
  5
288E
330
2865
100
AcDbSymbolTableRecord
100
AcDbTextStyleTableRecord
  2
ROMANS
 70
     0
 40
0.0
 41
1.0
 50
0.0
 71
     0
 42
0.125
  3
romans.shx
  4

  0
ENDTAB
  0
TABLE
  2
VIEW
  5
2868
330
0
100
AcDbSymbolTable
 70
     0
  0
ENDTAB
  0
TABLE
  2
UCS
  5
2869
330
0
100
AcDbSymbolTable
 70
     0
  0
ENDTAB
  0
TABLE
  2
APPID
  5
286B
330
0
100
AcDbSymbolTable
 70
     1
  0
APPID
  5
2873
330
286B
100
AcDbSymbolTableRecord
100
AcDbRegAppTableRecord
  2
ACAD
 70
     0
  0
ENDTAB
  0
TABLE
  2
DIMSTYLE
  5
286C
330
0
100
AcDbSymbolTable
 70
     1
  0
DIMSTYLE
105
2886
330
286C
100
AcDbSymbolTableRecord
100
AcDbDimStyleTableRecord
  2
STANDARD
 70
     0
  3

  4

  5

  6

  7

 40
1.0
 41
0.125
 42
0.125
 43
0.375
 44
0.125
 45
0.0
 46
0.0
 47
0.0
 48
0.0
140
0.125
141
-0.125
142
0.0
143
25.4
144
1.0
145
0.0
146
1.0
147
0.09
 71
     0
 72
     0
 73
     1
 74
     1
 75
     0
 76
     0
 77
     0
 78
     4
170
     0
171
     2
172
     0
173
     0
174
     1
175
     0
176
     0
177
     0
178
     0
270
     2
271
     3
272
     3
273
     2
274
     2
340
288E
275
     0
280
     0
281
     0
282
     0
283
     1
284
     4
285
     0
286
     0
287
     3
288
     0
  0
ENDTAB
  0
TABLE
  2
BLOCK_RECORD
  5
2863
330
0
100
AcDbSymbolTable
 70
     0
  0
BLOCK_RECORD
  5
287A
102
{ACAD_XDICTIONARY
360
28C1
102
}
330
2863
100
AcDbSymbolTableRecord
100
AcDbBlockTableRecord
  2
*MODEL_SPACE
  0
BLOCK_RECORD
  5
2877
102
{ACAD_XDICTIONARY
360
28BF
102
}
330
2863
100
AcDbSymbolTableRecord
100
AcDbBlockTableRecord
  2
*PAPER_SPACE
  0
ENDTAB
  0
ENDSEC
  0
SECTION
  2
BLOCKS
  0
BLOCK
  5
2884
330
287A
100
AcDbEntity
  8
0
100
AcDbBlockBegin
  2
*MODEL_SPACE
 70
     0
 10
0.0
 20
0.0
 30
0.0
  3
*MODEL_SPACE
  1

  0
ENDBLK
  5
2885
330
287A
100
AcDbEntity
  8
0
100
AcDbBlockEnd
  0
BLOCK
  5
2882
330
2877
100
AcDbEntity
 67
     1
  8
0
100
AcDbBlockBegin
  2
*PAPER_SPACE
 70
     0
 10
0.0
 20
0.0
 30
0.0
  3
*PAPER_SPACE
  1

  0
ENDBLK
  5
2883
330
2877
100
AcDbEntity
 67
     1
  8
0
100
AcDbBlockEnd
  0
ENDSEC
  0
SECTION
  2
ENTITIES
  0
LWPOLYLINE
  5
E20
330
287A
100
AcDbEntity
  8
0
100
AcDbPolyline
 90
       22
 70
     1
 43
0.0
 10
1.70873372736724
 20
1.562660024154589
 10
1.53373372736724
 20
1.562660024154589
 10
1.523733727367239
 20
1.572660024154589
 10
1.513733727367239
 20
1.562660024154589
 10
1.338733727367239
 20
1.562660024154589
 10
1.338733727367239
 20
1.372660024154589
 10
1.27873372736724
 20
1.372660024154589
 10
1.27873372736724
 20
1.592660024154589
 42
-0.4142135623730951
 10
1.308733727367239
 20
1.622660024154589
 10
1.463733727367239
 20
1.622660024154589
 10
1.493733727367239
 20
1.722660024154589
 10
1.44873372736724
 20
1.767660024154589
 42
-1.0
 10
1.598733727367239
 20
1.767660024154589
 10
1.55373372736724
 20
1.722660024154589
 10
1.58373372736724
 20
1.622660024154589
 10
1.73873372736724
 20
1.622660024154589
 42
-0.4142135623730951
 10
1.76873372736724
 20
1.592660024154589
 10
1.76873372736724
 20
1.372660024154589
 10
1.70873372736724
 20
1.372660024154589
 10
1.70873372736724
 20
1.456660024154589
 10
1.718733727367239
 20
1.466660024154589
 10
1.70873372736724
 20
1.476660024154589
  0
TEXT
  5
2725
330
287A
100
AcDbEntity
  8
TEXT
100
AcDbText
 10
0.7707575368910496
 20
1.033285024154589
 30
0.0
 40
0.125
  1
PART #110009
  7
ITALICC
 72
     1
 11
1.52373372736724
 21
1.033285024154589
 31
0.0
100
AcDbText
  0
TEXT
  5
2726
330
287A
100
AcDbEntity
  8
TEXT
100
AcDbText
 10
1.93703888561756
 20
0.5863623814822143
 30
0.0
 40
0.0522247191011236
  1
Phone  1-800-328-2495
 41
1.272321428571429
 72
     5
 11
3.265971469887224
 21
0.5863623814822143
 31
0.0
100
AcDbText
  0
TEXT
  5
2727
330
287A
100
AcDbEntity
  8
TEXT
100
AcDbText
 10
1.93703888561756
 20
0.8661376623810907
 30
0.0
 40
0.0522247191011236
  1
Stylmark  Incorporated
 41
1.221428571428573
 72
     5
 11
3.265971469887224
 21
0.8661376623810907
 31
0.0
100
AcDbText
  0
TEXT
  5
2728
330
287A
100
AcDbEntity
  8
TEXT
100
AcDbText
 10
1.93703888561756
 20
0.7728792354147986
 30
0.0
 40
0.0522247191011236
  1
6536 Main St. N.E. * P.O. Box 32008
 41
0.8388932496075366
 72
     5
 11
3.265971469887224
 21
0.7728792354147986
 31
0.0
100
AcDbText
  0
TEXT
  5
2729
330
287A
100
AcDbEntity
  8
TEXT
100
AcDbText
 10
1.93703888561756
 20
0.6796208084485065
 30
0.0
 40
0.0522247191011236
  1
Minneapolis, MN 55432-0008
 41
1.11444212721585
 72
     5
 11
3.265971469887224
 21
0.6796208084485065
 31
0.0
100
AcDbText
  0
LWPOLYLINE
  5
272A
330
287A
100
AcDbEntity
  8
TEXT
100
AcDbPolyline
 90
        3
 70
     0
 43
0.0006660908203125
 10
-0.218914806449747
 20
0.7000071441196491
 10
-0.218914806449747
 20
0.5867717046665215
 10
-0.1056793669966247
 20
0.5867717046665215
  0
LWPOLYLINE
  5
272F
330
287A
100
AcDbEntity
  8
TEXT
100
AcDbPolyline
 90
        3
 70
     0
 43
0.0006660908203125
 10
-0.1922711736372495
 20
0.7000071441196491
 10
-0.1922711736372495
 20
0.6134153374790225
 10
-0.1056793669966247
 20
0.6134153374790225
  0
LWPOLYLINE
  5
2734
330
287A
100
AcDbEntity
  8
TEXT
100
AcDbPolyline
 90
        2
 70
     0
 43
0.0001332181640625
 10
-0.1456448162153727
 20
0.7099985064243344
 10
-0.218914806449747
 20
0.7000071441196491
  0
LWPOLYLINE
  5
2738
330
287A
100
AcDbEntity
  8
TEXT
100
AcDbPolyline
 90
        2
 70
     0
 43
0.0001332181640625
 10
-0.1922711736372495
 20
0.7000071441196491
 10
-0.1323229998091222
 20
0.7099985064243344
  0
LWPOLYLINE
  5
273C
330
287A
100
AcDbEntity
  8
TEXT
100
AcDbPolyline
 90
        2
 70
     0
 43
0.0001332181640625
 10
-0.1922711736372495
 20
0.6134153374790225
 10
-0.1323229998091222
 20
0.6733635113071481
  0
LWPOLYLINE
  5
2740
330
287A
100
AcDbEntity
  8
TEXT
100
AcDbPolyline
 90
        3
 70
     0
 43
0.0006660908203125
 10
-0.1056793669966247
 20
0.8532080327915247
 10
-0.218914806449747
 20
0.8532080327915247
 10
-0.218914806449747
 20
0.7399725933383971
  0
LWPOLYLINE
  5
2745
330
287A
100
AcDbEntity
  8
TEXT
100
AcDbPolyline
 90
        3
 70
     0
 43
0.0006660908203125
 10
-0.1056793669966247
 20
0.8265643999790237
 10
-0.1922711736372495
 20
0.8265643999790237
 10
-0.1922711736372495
 20
0.7399725933383971
  0
LWPOLYLINE
  5
274A
330
287A
100
AcDbEntity
  8
TEXT
100
AcDbPolyline
 90
        2
 70
     0
 43
0.0001332181640625
 10
-0.1922711736372495
 20
0.8265643999790237
 10
-0.132322999809124
 20
0.7666162261508982
  0
LWPOLYLINE
  5
274E
330
287A
100
AcDbEntity
  8
TEXT
100
AcDbPolyline
 90
        2
 70
     0
 43
0.0001332181640625
 10
-0.1922711736372495
 20
0.7399725933383971
 10
-0.132322999809124
 20
0.7299812310337084
  0
LWPOLYLINE
  5
2752
330
287A
100
AcDbEntity
  8
TEXT
100
AcDbPolyline
 90
        2
 70
     0
 43
0.0001332181640625
 10
-0.218914806449747
 20
0.7399725933383971
 10
-0.1456448162153727
 20
0.7299812310337084
  0
LWPOLYLINE
  5
2756
330
287A
100
AcDbEntity
  8
TEXT
100
AcDbPolyline
 90
        2
 70
     0
 43
0.0006660908203125
 10
-0.1922711736372495
 20
0.7000071441196491
 10
-0.218914806449747
 20
0.7000071441196491
  0
LWPOLYLINE
  5
275A
330
287A
100
AcDbEntity
  8
TEXT
100
AcDbPolyline
 90
        2
 70
     0
 43
0.0006660908203125
 10
-0.1922711736372495
 20
0.7399725933383971
 10
-0.218914806449747
 20
0.7399725933383971
  0
LINE
  5
275E
330
287A
100
AcDbEntity
  8
TEXT
100
AcDbLine
 10
1.29627562267675
 20
0.7889313381347558
 30
0.0
 11
1.189069349289461
 21
0.7889313381347558
 31
0.0
  0
LINE
  5
275F
330
287A
100
AcDbEntity
  8
TEXT
100
AcDbLine
 10
1.325306521021228
 20
0.8532080327915211
 30
0.0
 11
1.190474611804169
 21
0.8532080327915211
 31
0.0
  0
ARC
  5
2760
330
287A
100
AcDbEntity
  8
TEXT
100
AcDbCircle
 10
1.249788708197486
 20
0.6839707835285049
 30
0.0
 40
0.0676855811441166
100
AcDbArc
 50
90.0
 51
153.7768192527749
  0
LWPOLYLINE
  5
2761
330
287A
100
AcDbEntity
  8
TEXT
100
AcDbPolyline
 90
        2
 70
     0
 43
0.0
 10
1.188036853834651
 20
0.6302259447534484
 42
0.2901071551932823
 10
1.231112786702286
 20
0.5867349998030102
 42
5.328517124445801
  0
ARC
  5
2765
330
287A
100
AcDbEntity
  8
TEXT
100
AcDbCircle
 10
0.544657330526001
 20
0.6465273911410601
 30
0.0
 40
0.0601160179737537
100
AcDbArc
 50
180.0000000000003
 51
264.0521544866073
  0
LINE
  5
2766
330
287A
100
AcDbEntity
  8
TEXT
100
AcDbLine
 10
0.5481726861515489
 20
0.8875959503856593
 30
0.0
 11
0.4881300813075418
 21
0.8875959503856593
 31
0.0
  0
ARC
  5
2767
330
287A
100
AcDbEntity
  8
TEXT
100
AcDbCircle
 10
0.3123983284090304
 20
0.7711205733450195
 30
0.0
 40
0.0820874594465043
100
AcDbArc
 50
90.0
 51
270.0
  0
LWPOLYLINE
  5
2768
330
287A
100
AcDbEntity
  8
TEXT
100
AcDbPolyline
 90
        2
 70
     0
 43
0.0001332181640625
 10
-0.0956880046919342
 20
0.7799380425571452
 10
-0.1056793669966247
 20
0.8532080327915247
  0
LWPOLYLINE
  5
276C
330
287A
100
AcDbEntity
  8
TEXT
100
AcDbPolyline
 90
        2
 70
     0
 43
0.0001332181640625
 10
-0.1056793669966247
 20
0.8265643999790237
 10
-0.0956880046919342
 20
0.7666162261508982
  0
LWPOLYLINE
  5
2770
330
287A
100
AcDbEntity
  8
TEXT
100
AcDbPolyline
 90
        3
 70
     0
 43
0.0006660908203125
 10
0.0475215216752527
 20
0.7399725933383971
 10
0.0475215216752527
 20
0.8532080327915247
 10
-0.0657139177778732
 20
0.8532080327915247
  0
LWPOLYLINE
  5
2775
330
287A
100
AcDbEntity
  8
TEXT
100
AcDbPolyline
 90
        3
 70
     0
 43
0.0006660908203125
 10
0.0208778888627517
 20
0.7399725933383971
 10
0.0208778888627517
 20
0.8265643999790237
 10
-0.0657139177778732
 20
0.8265643999790237
  0
LWPOLYLINE
  5
277A
330
287A
100
AcDbEntity
  8
TEXT
100
AcDbPolyline
 90
        2
 70
     0
 43
0.0001332181640625
 10
0.0208778888627517
 20
0.8265643999790237
 10
-0.0390702849653721
 20
0.7666162261508982
  0
LWPOLYLINE
  5
277E
330
287A
100
AcDbEntity
  8
TEXT
100
AcDbPolyline
 90
        2
 70
     0
 43
0.0001332181640625
 10
-0.0657139177778732
 20
0.8265643999790237
 10
-0.075705280082562
 20
0.7666162261508982
  0
LWPOLYLINE
  5
2782
330
287A
100
AcDbEntity
  8
TEXT
100
AcDbPolyline
 90
        2
 70
     0
 43
0.0001332181640625
 10
-0.0657139177778732
 20
0.8532080327915247
 10
-0.075705280082562
 20
0.7799380425571452
  0
LWPOLYLINE
  5
2786
330
287A
100
AcDbEntity
  8
TEXT
100
AcDbPolyline
 90
        2
 70
     0
 43
0.0001332181640625
 10
-0.0257484685591234
 20
0.7299812310337084
 10
0.0475215216752527
 20
0.7399725933383971
  0
LWPOLYLINE
  5
278A
330
287A
100
AcDbEntity
  8
TEXT
100
AcDbPolyline
 90
        2
 70
     0
 43
0.0001332181640625
 10
0.0208778888627517
 20
0.7399725933383971
 10
-0.0390702849653721
 20
0.7299812310337084
  0
LWPOLYLINE
  5
278E
330
287A
100
AcDbEntity
  8
TEXT
100
AcDbPolyline
 90
        2
 70
     0
 43
0.0001332181640625
 10
0.0475215216752527
 20
0.7000071441196491
 10
-0.0257484685591234
 20
0.7099985064243344
  0
LWPOLYLINE
  5
2792
330
287A
100
AcDbEntity
  8
TEXT
100
AcDbPolyline
 90
        2
 70
     0
 43
0.0001332181640625
 10
0.0208778888627517
 20
0.7000071441196491
 10
-0.0390702849653721
 20
0.7099985064243344
  0
LWPOLYLINE
  5
2796
330
287A
100
AcDbEntity
  8
TEXT
100
AcDbPolyline
 90
        2
 70
     0
 43
0.0001332181640625
 10
0.0208778888627517
 20
0.6134153374790225
 10
-0.0390702849653721
 20
0.6733635113071481
  0
LWPOLYLINE
  5
279A
330
287A
100
AcDbEntity
  8
TEXT
100
AcDbPolyline
 90
        3
 70
     0
 43
0.0006660908203125
 10
-0.0657139177778732
 20
0.6134153374790225
 10
0.0208778888627517
 20
0.6134153374790225
 10
0.0208778888627517
 20
0.7000071441196491
  0
LWPOLYLINE
  5
279F
330
287A
100
AcDbEntity
  8
TEXT
100
AcDbPolyline
 90
        3
 70
     0
 43
0.0006660908203125
 10
-0.0657139177778732
 20
0.5867717046665215
 10
0.0475215216752527
 20
0.5867717046665215
 10
0.0475215216752527
 20
0.7000071441196491
  0
LWPOLYLINE
  5
27A4
330
287A
100
AcDbEntity
  8
TEXT
100
AcDbPolyline
 90
        5
 70
     0
 43
0.0001332181640625
 10
-0.0956880046919342
 20
0.6600416949008976
 10
-0.0956880046919342
 20
0.6733635113071481
 10
-0.1323229998091222
 20
0.6733635113071481
 10
-0.1323229998091222
 20
0.7099985064243344
 10
-0.1456448162153727
 20
0.7099985064243344
  0
LWPOLYLINE
  5
27AB
330
287A
100
AcDbEntity
  8
TEXT
100
AcDbPolyline
 90
        2
 70
     0
 43
0.0006660908203125
 10
-0.1056793669966247
 20
0.6134153374790225
 10
-0.1056793669966247
 20
0.5867717046665215
  0
LWPOLYLINE
  5
27AF
330
287A
100
AcDbEntity
  8
TEXT
100
AcDbPolyline
 90
        2
 70
     0
 43
0.0001332181640625
 10
-0.1056793669966247
 20
0.6134153374790225
 10
-0.0956880046919342
 20
0.6733635113071481
  0
LWPOLYLINE
  5
27B3
330
287A
100
AcDbEntity
  8
TEXT
100
AcDbPolyline
 90
        2
 70
     0
 43
0.0001332181640625
 10
-0.1056793669966247
 20
0.5867717046665215
 10
-0.0956880046919342
 20
0.6600416949008976
  0
LWPOLYLINE
  5
27B7
330
287A
100
AcDbEntity
  8
TEXT
100
AcDbPolyline
 90
        5
 70
     0
 43
0.0001332181640625
 10
-0.1456448162153727
 20
0.7299812310337084
 10
-0.132322999809124
 20
0.7299812310337084
 10
-0.132322999809124
 20
0.7666162261508982
 10
-0.0956880046919342
 20
0.7666162261508982
 10
-0.0956880046919342
 20
0.7799380425571452
  0
LWPOLYLINE
  5
27BE
330
287A
100
AcDbEntity
  8
TEXT
100
AcDbPolyline
 90
        5
 70
     0
 43
0.0001332181640625
 10
-0.075705280082562
 20
0.7799380425571452
 10
-0.075705280082562
 20
0.7666162261508982
 10
-0.0390702849653721
 20
0.7666162261508982
 10
-0.0390702849653721
 20
0.7299812310337084
 10
-0.0257484685591234
 20
0.7299812310337084
  0
LWPOLYLINE
  5
27C5
330
287A
100
AcDbEntity
  8
TEXT
100
AcDbPolyline
 90
        2
 70
     0
 43
0.0001332181640625
 10
-0.0657139177778732
 20
0.6134153374790225
 10
-0.075705280082562
 20
0.6733635113071481
  0
LWPOLYLINE
  5
27C9
330
287A
100
AcDbEntity
  8
TEXT
100
AcDbPolyline
 90
        2
 70
     0
 43
0.0001332181640625
 10
-0.075705280082562
 20
0.6600416949008976
 10
-0.0657139177778732
 20
0.5867717046665215
  0
LWPOLYLINE
  5
27CD
330
287A
100
AcDbEntity
  8
TEXT
100
AcDbPolyline
 90
        2
 70
     0
 43
0.0006660908203125
 10
-0.0657139177778732
 20
0.6134153374790225
 10
-0.0657139177778732
 20
0.5867717046665215
  0
LWPOLYLINE
  5
27D1
330
287A
100
AcDbEntity
  8
TEXT
100
AcDbPolyline
 90
        5
 70
     0
 43
0.0001332181640625
 10
-0.0257484685591234
 20
0.7099985064243344
 10
-0.0390702849653721
 20
0.7099985064243344
 10
-0.0390702849653721
 20
0.6733635113071481
 10
-0.075705280082562
 20
0.6733635113071481
 10
-0.075705280082562
 20
0.6600416949008976
  0
LWPOLYLINE
  5
27D8
330
287A
100
AcDbEntity
  8
TEXT
100
AcDbPolyline
 90
        2
 70
     0
 43
0.0006660908203125
 10
0.0208778888627517
 20
0.7399725933383971
 10
0.0475215216752527
 20
0.7399725933383971
  0
LWPOLYLINE
  5
27DC
330
287A
100
AcDbEntity
  8
TEXT
100
AcDbPolyline
 90
        2
 70
     0
 43
0.0006660908203125
 10
0.0208778888627517
 20
0.7000071441196491
 10
0.0475215216752527
 20
0.7000071441196491
  0
LINE
  5
27E0
330
287A
100
AcDbEntity
  8
TEXT
100
AcDbLine
 10
0.3176356585232776
 20
0.7889313381347558
 30
0.0
 11
0.4845413125522489
 21
0.7889313381347558
 31
0.0
  0
LINE
  5
27E1
330
287A
100
AcDbEntity
  8
TEXT
100
AcDbLine
 10
0.3832357947675786
 20
0.7531266165241279
 30
0.0
 11
0.3176356585232776
 21
0.7531266165241279
 31
0.0
  0
LINE
  5
27E2
330
287A
100
AcDbEntity
  8
TEXT
100
AcDbLine
 10
0.2303108689625259
 20
0.5867349998030102
 30
0.0
 11
0.3832357947675786
 21
0.5867349998030102
 31
0.0
  0
LINE
  5
27E3
330
287A
100
AcDbEntity
  8
TEXT
100
AcDbLine
 10
0.3881761686738583
 20
0.6550920061364496
 30
0.0
 11
0.2303108689625242
 21
0.6550920061364496
 31
0.0
  0
LINE
  5
27E4
330
287A
100
AcDbEntity
  8
TEXT
100
AcDbLine
 10
0.3123983284090295
 20
0.6890331138985142
 30
0.0
 11
0.3881761686738583
 21
0.6890331138985142
 31
0.0
  0
ARC
  5
27E5
330
287A
100
AcDbEntity
  8
TEXT
100
AcDbCircle
 10
0.3176356585232785
 20
0.7710289773294436
 30
0.0
 40
0.017902360805315
100
AcDbArc
 50
90.0
 51
270.0
  0
LINE
  5
27E6
330
287A
100
AcDbEntity
  8
TEXT
100
AcDbLine
 10
0.2303108689625242
 20
0.6550920061364496
 30
0.0
 11
0.2303108689625259
 21
0.5867349998030102
 31
0.0
  0
LINE
  5
27E7
330
287A
100
AcDbEntity
  8
TEXT
100
AcDbLine
 10
0.4845413125522489
 20
0.7889313381347558
 30
0.0
 11
0.4845413125522489
 21
0.6465273911410601
 31
0.0
  0
ARC
  5
27E8
330
287A
100
AcDbEntity
  8
TEXT
100
AcDbCircle
 10
0.3832357947675795
 20
0.6699308081635673
 30
0.0
 40
0.0831958083605586
100
AcDbArc
 50
270.0
 51
90.0
  0
ARC
  5
27E9
330
287A
100
AcDbEntity
  8
TEXT
100
AcDbCircle
 10
0.3881761686738592
 20
0.6720625600174837
 30
0.0
 40
0.0169705538810321
100
AcDbArc
 50
270.0
 51
90.0
  0
LWPOLYLINE
  5
27EA
330
287A
100
AcDbEntity
  8
TEXT
100
AcDbPolyline
 90
        2
 70
     0
 43
0.0006660908203125
 10
-0.1056793669966247
 20
0.8265643999790237
 10
-0.1056793669966247
 20
0.8532080327915247
  0
LWPOLYLINE
  5
27EE
330
287A
100
AcDbEntity
  8
TEXT
100
AcDbPolyline
 90
        2
 70
     0
 43
0.0006660908203125
 10
-0.0657139177778732
 20
0.8265643999790237
 10
-0.0657139177778732
 20
0.8532080327915247
  0
LINE
  5
27F2
330
287A
100
AcDbEntity
  8
TEXT
100
AcDbLine
 10
0.4881300813075418
 20
0.8532080327915211
 30
0.0
 11
0.3123983284090295
 21
0.8532080327915211
 31
0.0
  0
LINE
  5
27F3
330
287A
100
AcDbEntity
  8
TEXT
100
AcDbLine
 10
0.4881300813075418
 20
0.8875959503856593
 30
0.0
 11
0.4881300813075418
 21
0.8532080327915211
 31
0.0
  0
LINE
  5
27F4
330
287A
100
AcDbEntity
  8
TEXT
100
AcDbLine
 10
0.6786019733273941
 20
0.7523360366784006
 30
0.0
 11
0.6199716522954562
 21
0.8532080327915211
 31
0.0
  0
LINE
  5
27F5
330
287A
100
AcDbEntity
  8
TEXT
100
AcDbLine
 10
0.7373505361332596
 20
0.8532080327915211
 30
0.0
 11
0.6786019733273941
 21
0.7523360366784006
 31
0.0
  0
LINE
  5
27F6
330
287A
100
AcDbEntity
  8
TEXT
100
AcDbLine
 10
0.8342811614930008
 20
0.6691228379060095
 30
0.0
 11
0.8342811614930008
 21
0.9212195105303317
 31
0.0
  0
LINE
  5
27F7
330
287A
100
AcDbEntity
  8
TEXT
100
AcDbLine
 10
0.8665930156306609
 20
0.8532080327915211
 30
0.0
 11
0.8665930156306609
 21
0.652343826059113
 31
0.0
  0
LINE
  5
27F8
330
287A
100
AcDbEntity
  8
TEXT
100
AcDbLine
 10
0.8665930156306609
 20
0.652343826059113
 30
0.0
 11
0.8495993787460596
 21
0.652343826059113
 31
0.0
  0
LINE
  5
27F9
330
287A
100
AcDbEntity
  8
TEXT
100
AcDbLine
 10
0.8354207349891956
 20
0.5867349998030102
 30
0.0
 11
0.9334240686886301
 21
0.5867349998030102
 31
0.0
  0
LINE
  5
27FA
330
287A
100
AcDbEntity
  8
TEXT
100
AcDbLine
 10
0.6690017363304398
 20
0.6066935059080232
 30
0.0
 11
0.7663014424238844
 21
0.7710437168432913
 31
0.0
  0
ARC
  5
27FB
330
287A
100
AcDbEntity
  8
TEXT
100
AcDbCircle
 10
0.6349581764182258
 20
0.626282722076706
 30
0.0
 40
0.0392772371940762
100
AcDbArc
 50
270.1604552698595
 51
330.0831797321295
  0
LINE
  5
27FC
330
287A
100
AcDbEntity
  8
TEXT
100
AcDbLine
 10
0.5384279200323546
 20
0.5867349998030102
 30
0.0
 11
0.635068171107349
 21
0.5870056389012925
 31
0.0
  0
LWPOLYLINE
  5
27FD
330
287A
100
AcDbEntity
  8
TEXT
100
AcDbPolyline
 90
        6
 70
     1
 43
0.0
 10
0.5809517236075042
 20
0.7889313381347558
 10
0.5506351293872961
 20
0.7889313381347558
 10
0.5506351293872961
 20
0.6658203400798615
 42
0.407328721240804
 10
0.5621787805487724
 20
0.6540014254034754
 10
0.6228004795935032
 20
0.6540014254034754
 10
0.6402658200008212
 20
0.6868136544469545
  0
LINE
  5
2805
330
287A
100
AcDbEntity
  8
TEXT
100
AcDbLine
 10
0.7663014424238844
 20
0.7710437168432913
 30
0.0
 11
0.7663014424238844
 21
0.638286342017935
 31
0.0
  0
ARC
  5
2806
330
287A
100
AcDbEntity
  8
TEXT
100
AcDbCircle
 10
0.8495993787460578
 20
0.6677256323025384
 30
0.0
 40
0.0153818062434269
100
AcDbArc
 50
174.7883570302258
 51
270.0
  0
LWPOLYLINE
  5
2807
330
287A
100
AcDbEntity
  8
TEXT
100
AcDbPolyline
 90
        2
 70
     0
 43
0.0
 10
0.7663014424238826
 20
0.6382863420179385
 42
0.3318488747599744
 10
0.8354207349891956
 20
0.5867349998030102
 42
-6.868794160588311
  0
LINE
  5
280B
330
287A
100
AcDbEntity
  8
TEXT
100
AcDbLine
 10
0.9908131376778912
 20
0.5867349998030102
 30
0.0
 11
1.057871184459731
 21
0.5867349998030102
 31
0.0
  0
LINE
  5
280C
330
287A
100
AcDbEntity
  8
TEXT
100
AcDbLine
 10
0.9908131376778912
 20
0.7813775489686459
 30
0.0
 11
0.9908131376778912
 21
0.5867349998030102
 31
0.0
  0
LINE
  5
280D
330
287A
100
AcDbEntity
  8
TEXT
100
AcDbLine
 10
0.9334240686886301
 20
0.7889313381347558
 30
0.0
 11
0.9832593485117778
 21
0.7889313381347558
 31
0.0
  0
LINE
  5
280E
330
287A
100
AcDbEntity
  8
TEXT
100
AcDbLine
 10
0.9334240686886301
 20
0.5867349998030102
 30
0.0
 11
0.9334240686886301
 21
0.7889313381347558
 31
0.0
  0
LWPOLYLINE
  5
280F
330
287A
100
AcDbEntity
  8
TEXT
100
AcDbPolyline
 90
        2
 70
     0
 43
0.0
 10
0.983259348511776
 20
0.7889313381347558
 42
-0.4142135623731017
 10
0.9908131376778895
 20
0.7813775489686459
 42
-0.9999999999999998
  0
LINE
  5
2813
330
287A
100
AcDbEntity
  8
TEXT
100
AcDbLine
 10
1.189069349289461
 20
0.7889313381347558
 30
0.0
 11
1.189069349289461
 21
0.7138789320605492
 31
0.0
  0
LINE
  5
2814
330
287A
100
AcDbEntity
  8
TEXT
100
AcDbLine
 10
1.057871184459731
 20
0.7889313381347558
 30
0.0
 11
1.112004781380681
 21
0.7889313381347558
 31
0.0
  0
LINE
  5
2815
330
287A
100
AcDbEntity
  8
TEXT
100
AcDbLine
 10
1.057871184459731
 20
0.5867349998030102
 30
0.0
 11
1.057871184459731
 21
0.7889313381347558
 31
0.0
  0
LWPOLYLINE
  5
2816
330
287A
100
AcDbEntity
  8
TEXT
100
AcDbPolyline
 90
        2
 70
     0
 43
0.0
 10
1.112004781380679
 20
0.7889313381347558
 42
-0.4142135623731017
 10
1.119558570546793
 20
0.7813775489686459
 42
-0.9999999999999998
  0
LWPOLYLINE
  5
281A
330
287A
100
AcDbEntity
  8
TEXT
100
AcDbPolyline
 90
        4
 70
     0
 43
0.0
 10
1.119558570546793
 20
0.7813775489686459
 10
1.119558570546793
 20
0.5867349998030102
 10
1.188036853834651
 20
0.5867349998030102
 10
1.188036853834651
 20
0.6302259447534484
 42
-1.714843617202739
  0
LINE
  5
2820
330
287A
100
AcDbEntity
  8
TEXT
100
AcDbLine
 10
0.5481726861515489
 20
0.8532080327915211
 30
0.0
 11
0.5481726861515489
 21
0.8875959503856593
 31
0.0
  0
LINE
  5
2821
330
287A
100
AcDbEntity
  8
TEXT
100
AcDbLine
 10
0.6199716522954562
 20
0.8532080327915211
 30
0.0
 11
0.5481726861515489
 21
0.8532080327915211
 31
0.0
  0
LINE
  5
2822
330
287A
100
AcDbEntity
  8
TEXT
100
AcDbLine
 10
0.7674724489266359
 20
0.8532080327915211
 30
0.0
 11
0.7373505361332596
 21
0.8532080327915211
 31
0.0
  0
LINE
  5
2823
330
287A
100
AcDbEntity
  8
TEXT
100
AcDbLine
 10
0.7674724489266359
 20
0.9212195105303317
 30
0.0
 11
0.7674724489266359
 21
0.8532080327915211
 31
0.0
  0
LINE
  5
2824
330
287A
100
AcDbEntity
  8
TEXT
100
AcDbLine
 10
0.8342811614930008
 20
0.9212195105303317
 30
0.0
 11
0.7674724489266359
 21
0.9212195105303317
 31
0.0
  0
LWPOLYLINE
  5
2825
330
287A
100
AcDbEntity
  8
TEXT
100
AcDbPolyline
 90
        3
 70
     0
 43
0.0
 10
1.154692921091003
 20
0.8532080327915247
 10
1.036392762274958
 20
0.8532080327915247
 10
1.036392762274958
 20
0.8260405360306288
 42
-1.960274751411753
  0
LINE
  5
282A
330
287A
100
AcDbEntity
  8
TEXT
100
AcDbLine
 10
1.000611071561797
 20
0.8532080327915211
 30
0.0
 11
0.8665930156306609
 21
0.8532080327915211
 31
0.0
  0
LWPOLYLINE
  5
282B
330
287A
100
AcDbEntity
  8
TEXT
100
AcDbPolyline
 90
        2
 70
     0
 43
0.0
 10
1.000611071561797
 20
0.8532080327915247
 42
-0.3328679258950098
 10
1.036392762274958
 20
0.8260405360306288
 42
6.772930709997214
  0
LINE
  5
282F
330
287A
100
AcDbEntity
  8
TEXT
100
AcDbLine
 10
1.190474611804169
 20
0.8532080327915211
 30
0.0
 11
1.190474611804169
 21
0.8248854870218773
 31
0.0
  0
LWPOLYLINE
  5
2830
330
287A
100
AcDbEntity
  8
TEXT
100
AcDbPolyline
 90
        2
 70
     0
 43
0.0
 10
1.154692921091003
 20
0.8532080327915247
 42
-0.3277054968067132
 10
1.190474611804168
 20
0.8248854870218808
 42
6.667889725900311
  0
LINE
  5
2834
330
287A
100
AcDbEntity
  8
TEXT
100
AcDbLine
 10
1.40426645989627
 20
0.7479960542380939
 30
0.0
 11
1.360515688714368
 21
0.830246330234239
 31
0.0
  0
LINE
  5
2835
330
287A
100
AcDbEntity
  8
TEXT
100
AcDbLine
 10
1.40426645989627
 20
0.8532080327915211
 30
0.0
 11
1.40426645989627
 21
0.7479960542380939
 31
0.0
  0
LINE
  5
2836
330
287A
100
AcDbEntity
  8
TEXT
100
AcDbLine
 10
1.631950198834639
 20
0.7773427063799831
 30
0.0
 11
1.631950198834639
 21
0.9186722385591219
 31
0.0
  0
LINE
  5
2837
330
287A
100
AcDbEntity
  8
TEXT
100
AcDbLine
 10
1.679048357390623
 20
0.8532080327915211
 30
0.0
 11
1.631950198834639
 21
0.7773427063799831
 31
0.0
  0
LINE
  5
2838
330
287A
100
AcDbEntity
  8
TEXT
100
AcDbLine
 10
1.689483074154546
 20
0.7433147898505477
 30
0.0
 11
1.754040190120251
 21
0.8532080327915211
 31
0.0
  0
LINE
  5
2839
330
287A
100
AcDbEntity
  8
TEXT
100
AcDbLine
 10
1.568115207611865
 20
0.5867349998030102
 30
0.0
 11
1.632493391930486
 21
0.5867349998030102
 31
0.0
  0
LWPOLYLINE
  5
283A
330
287A
100
AcDbEntity
  8
TEXT
100
AcDbPolyline
 90
        2
 70
     0
 43
0.0
 10
1.408206137201307
 20
0.6302259447534484
 42
-0.2901071551932486
 10
1.365130204333663
 20
0.5867349998030102
 42
-5.328517124445184
  0
ARC
  5
283E
330
287A
100
AcDbEntity
  8
TEXT
100
AcDbCircle
 10
1.296275622676748
 20
0.7605719631347585
 30
0.0
 40
0.028359375
100
AcDbArc
 50
25.78218179591245
 51
90.0
  0
LINE
  5
283F
330
287A
100
AcDbEntity
  8
TEXT
100
AcDbLine
 10
1.332076697980871
 20
0.7516563646726235
 30
0.0
 11
1.321811937567307
 21
0.7729069042453178
 31
0.0
  0
LINE
  5
2840
330
287A
100
AcDbEntity
  8
TEXT
100
AcDbLine
 10
1.249788708197488
 20
0.7516563646726235
 30
0.0
 11
1.332076697980871
 21
0.7516563646726235
 31
0.0
  0
LWPOLYLINE
  5
2841
330
287A
100
AcDbEntity
  8
TEXT
100
AcDbPolyline
 90
        4
 70
     1
 43
0.0
 10
1.34500773926377
 20
0.6896989777870355
 10
1.256347420603912
 20
0.6896989777870355
 42
0.9999999999999998
 10
1.256347420603912
 20
0.6473004372831748
 10
1.34500773926377
 20
0.6473004372831748
 42
1.0
  0
LWPOLYLINE
  5
2847
330
287A
100
AcDbEntity
  8
TEXT
100
AcDbPolyline
 90
        2
 70
     0
 43
0.0
 10
1.231112786702286
 20
0.5867349998030102
 10
1.365130204333663
 20
0.5867349998030102
 42
0.9999999999999998
  0
LINE
  5
284B
330
287A
100
AcDbEntity
  8
TEXT
100
AcDbLine
 10
1.491467226319302
 20
0.7889313381347558
 30
0.0
 11
1.56811520761186
 21
0.7889313381347558
 31
0.0
  0
LINE
  5
284C
330
287A
100
AcDbEntity
  8
TEXT
100
AcDbLine
 10
1.56811520761186
 20
0.7889313381347558
 30
0.0
 11
1.568115207611865
 21
0.5867349998030102
 31
0.0
  0
ARC
  5
284D
330
287A
100
AcDbEntity
  8
TEXT
100
AcDbCircle
 10
1.4914672263193
 20
0.764025462852093
 30
0.0
 40
0.0249058752826653
100
AcDbArc
 50
89.99971217465335
 51
179.9999999999985
  0
LINE
  5
284E
330
287A
100
AcDbEntity
  8
TEXT
100
AcDbLine
 10
1.466561351036643
 20
0.5867349998030102
 30
0.0
 11
1.466561351036638
 21
0.7640255052344786
 31
0.0
  0
LWPOLYLINE
  5
284F
330
287A
100
AcDbEntity
  8
TEXT
100
AcDbPolyline
 90
        2
 70
     0
 43
0.0
 10
1.408206137201307
 20
0.5867349998030102
 10
1.466561351036641
 20
0.5867349998030102
  0
LWPOLYLINE
  5
2853
330
287A
100
AcDbEntity
  8
TEXT
100
AcDbPolyline
 90
        2
 70
     0
 43
0.0
 10
1.408206137201307
 20
0.6302259447534484
 10
1.408206137201307
 20
0.5867349998030102
  0
LINE
  5
2857
330
287A
100
AcDbEntity
  8
TEXT
100
AcDbLine
 10
1.784975297518156
 20
0.5867349998030102
 30
0.0
 11
1.689483074154546
 21
0.7433147898505477
 31
0.0
  0
LINE
  5
2858
330
287A
100
AcDbEntity
  8
TEXT
100
AcDbLine
 10
1.70839692514195
 20
0.5867349998030102
 30
0.0
 11
1.784975297518156
 21
0.5867349998030102
 31
0.0
  0
LINE
  5
2859
330
287A
100
AcDbEntity
  8
TEXT
100
AcDbLine
 10
1.632493391930486
 20
0.7183145682791905
 30
0.0
 11
1.70839692514195
 21
0.5867349998030102
 31
0.0
  0
LINE
  5
285A
330
287A
100
AcDbEntity
  8
TEXT
100
AcDbLine
 10
1.632493391930486
 20
0.5867349998030102
 30
0.0
 11
1.632493391930486
 21
0.7183145682791905
 31
0.0
  0
LINE
  5
285B
330
287A
100
AcDbEntity
  8
TEXT
100
AcDbLine
 10
1.631950198834639
 20
0.9186722385591219
 30
0.0
 11
1.563635320285365
 21
0.9186722385591219
 31
0.0
  0
ARC
  5
285C
330
287A
100
AcDbEntity
  8
TEXT
100
AcDbCircle
 10
1.323279581244159
 20
0.8116244656706188
 30
0.0
 40
0.0416329381542859
100
AcDbArc
 50
26.56974201007528
 51
87.20939649401342
  0
LINE
  5
285D
330
287A
100
AcDbEntity
  8
TEXT
100
AcDbLine
 10
1.46816336619577
 20
0.8532080327915211
 30
0.0
 11
1.40426645989627
 21
0.8532080327915211
 31
0.0
  0
LINE
  5
285E
330
287A
100
AcDbEntity
  8
TEXT
100
AcDbLine
 10
1.46816336619577
 20
0.8256603829306465
 30
0.0
 11
1.46816336619577
 21
0.8532080327915211
 31
0.0
  0
ARC
  5
285F
330
287A
100
AcDbEntity
  8
TEXT
100
AcDbCircle
 10
1.499356183258878
 20
0.8219623055092563
 30
0.0
 40
0.0314112657011332
100
AcDbArc
 50
95.88484768694724
 51
173.2388340632136
  0
LINE
  5
2860
330
287A
100
AcDbEntity
  8
TEXT
100
AcDbLine
 10
1.56363532028536
 20
0.8532080327915211
 30
0.0
 11
1.496135602635843
 21
0.8532080327915211
 31
0.0
  0
LINE
  5
2861
330
287A
100
AcDbEntity
  8
TEXT
100
AcDbLine
 10
1.563635320285365
 20
0.9186722385591219
 30
0.0
 11
1.56363532028536
 21
0.8532080327915211
 31
0.0
  0
LINE
  5
2862
330
287A
100
AcDbEntity
  8
TEXT
100
AcDbLine
 10
1.754040190120251
 20
0.8532080327915211
 30
0.0
 11
1.679048357390625
 21
0.8532080327915211
 31
0.0
  0
ENDSEC
  0
SECTION
  2
OBJECTS
  0
DICTIONARY
  5
286E
330
0
100
AcDbDictionary
  3
ACAD_GROUP
350
286F
  3
ACAD_LAYOUT
350
2894
  3
ACAD_MLINESTYLE
350
2870
  3
ACAD_PLOTSETTINGS
350
2895
  3
ACAD_PLOTSTYLENAME
350
2892
  3
ACDBHEADERROUNDTRIPXREC
350
289F
  3
ACDBVARIABLEDICTIONARY
350
289C
  0
DICTIONARY
  5
28C1
330
287A
100
AcDbDictionary
280
     1
  3
ACAD_LAYOUTSELFREF
360
28C2
  0
DICTIONARY
  5
28BF
330
2877
100
AcDbDictionary
280
     1
  3
ACAD_LAYOUTSELFREF
360
28C0
  0
DICTIONARY
  5
286F
102
{ACAD_REACTORS
330
286E
102
}
330
286E
100
AcDbDictionary
  0
DICTIONARY
  5
2894
102
{ACAD_REACTORS
330
286E
102
}
330
286E
100
AcDbDictionary
  0
DICTIONARY
  5
2870
102
{ACAD_REACTORS
330
286E
102
}
330
286E
100
AcDbDictionary
  3
STANDARD
350
287D
  0
DICTIONARY
  5
2895
102
{ACAD_REACTORS
330
286E
102
}
330
286E
100
AcDbDictionary
  0
ACDBDICTIONARYWDFLT
  5
2892
102
{ACAD_REACTORS
330
286E
102
}
330
286E
100
AcDbDictionary
281
     1
  3
Normal
350
2893
100
AcDbDictionaryWithDefault
340
2893
  0
DICTIONARY
  5
289F
102
{ACAD_REACTORS
330
286E
102
}
330
286E
100
AcDbDictionary
  3
CEPSNTYPE
350
28A9
  3
FINGERPRINTGUID
350
28AA
  3
HYPERLINKBASE
350
28A2
  3
INSUNITS
350
28A8
  3
LAYOUTDICT
350
28A4
  3
LWETCUNION
350
28A7
  3
PLOTSETDICT
350
28A5
  3
PLOTSTYLNAMDICT
350
28A6
  3
PSVPSCALE
350
28AC
  3
PUCSBASE
350
28AF
  3
PUCSORGBACK
350
28B5
  3
PUCSORGBOTTOM
350
28B1
  3
PUCSORGFRONT
350
28B4
  3
PUCSORGLEFT
350
28B2
  3
PUCSORGRIGHT
350
28B3
  3
PUCSORGTOP
350
28B0
  3
PUCSORTHOREF
350
28AD
  3
PUCSORTHOVIEW
350
28AE
  3
STYLESHEET
350
28A3
  3
TSTACKALIGN
350
28A0
  3
TSTACKSIZE
350
28A1
  3
UCSBASE
350
28B8
  3
UCSORGBACK
350
28BE
  3
UCSORGBOTTOM
350
28BA
  3
UCSORGFRONT
350
28BD
  3
UCSORGLEFT
350
28BB
  3
UCSORGRIGHT
350
28BC
  3
UCSORGTOP
350
28B9
  3
UCSORTHOREF
350
28B6
  3
UCSORTHOVIEW
350
28B7
  3
VERSIONGUID
350
28AB
  0
DICTIONARY
  5
289C
102
{ACAD_REACTORS
330
286E
102
}
330
286E
100
AcDbDictionary
  3
DIMASSOC
350
289D
  0
XRECORD
  5
28C2
102
{ACAD_REACTORS
330
28C1
102
}
330
28C1
100
AcDbXrecord
340
287A
  0
XRECORD
  5
28C0
102
{ACAD_REACTORS
330
28BF
102
}
330
28BF
100
AcDbXrecord
340
2877
  0
MLINESTYLE
  5
287D
102
{ACAD_REACTORS
330
2870
102
}
330
2870
100
AcDbMlineStyle
  2
STANDARD
 70
     0
  3

 62
     0
 51
90.0
 52
90.0
 71
     2
 49
0.5
 62
   256
  6
BYLAYER
 49
-0.5
 62
   256
  6
BYLAYER
  0
ACDBPLACEHOLDER
  5
2893
102
{ACAD_REACTORS
330
2892
102
}
330
2892
100
AcDbPlaceHolder
280
     0
  0
XRECORD
  5
28A9
102
{ACAD_REACTORS
330
289F
102
}
330
289F
100
AcDbXrecord
 90
        0
  0
XRECORD
  5
28AA
102
{ACAD_REACTORS
330
289F
102
}
330
289F
100
AcDbXrecord
  1
{202B5480-8DB3-11D6-88E6-0090279574E7}
  0
XRECORD
  5
28A2
102
{ACAD_REACTORS
330
289F
102
}
330
289F
100
AcDbXrecord
  1

  0
XRECORD
  5
28A8
102
{ACAD_REACTORS
330
289F
102
}
330
289F
100
AcDbXrecord
 90
        0
  0
XRECORD
  5
28A4
102
{ACAD_REACTORS
330
289F
102
}
330
289F
100
AcDbXrecord
340
2894
  0
XRECORD
  5
28A7
102
{ACAD_REACTORS
330
289F
102
}
330
289F
100
AcDbXrecord
 90
    14877
  0
XRECORD
  5
28A5
102
{ACAD_REACTORS
330
289F
102
}
330
289F
100
AcDbXrecord
340
2895
  0
XRECORD
  5
28A6
102
{ACAD_REACTORS
330
289F
102
}
330
289F
100
AcDbXrecord
340
2892
  0
XRECORD
  5
28AC
102
{ACAD_REACTORS
330
289F
102
}
330
289F
100
AcDbXrecord
 40
0.0
  0
XRECORD
  5
28AF
102
{ACAD_REACTORS
330
289F
102
}
330
289F
100
AcDbXrecord
340
0
  0
XRECORD
  5
28B5
102
{ACAD_REACTORS
330
289F
102
}
330
289F
100
AcDbXrecord
 10
0.0
 20
0.0
 30
0.0
  0
XRECORD
  5
28B1
102
{ACAD_REACTORS
330
289F
102
}
330
289F
100
AcDbXrecord
 10
0.0
 20
0.0
 30
0.0
  0
XRECORD
  5
28B4
102
{ACAD_REACTORS
330
289F
102
}
330
289F
100
AcDbXrecord
 10
0.0
 20
0.0
 30
0.0
  0
XRECORD
  5
28B2
102
{ACAD_REACTORS
330
289F
102
}
330
289F
100
AcDbXrecord
 10
0.0
 20
0.0
 30
0.0
  0
XRECORD
  5
28B3
102
{ACAD_REACTORS
330
289F
102
}
330
289F
100
AcDbXrecord
 10
0.0
 20
0.0
 30
0.0
  0
XRECORD
  5
28B0
102
{ACAD_REACTORS
330
289F
102
}
330
289F
100
AcDbXrecord
 10
0.0
 20
0.0
 30
0.0
  0
XRECORD
  5
28AD
102
{ACAD_REACTORS
330
289F
102
}
330
289F
100
AcDbXrecord
340
0
  0
XRECORD
  5
28AE
102
{ACAD_REACTORS
330
289F
102
}
330
289F
100
AcDbXrecord
 70
     0
  0
XRECORD
  5
28A3
102
{ACAD_REACTORS
330
289F
102
}
330
289F
100
AcDbXrecord
  1

  0
XRECORD
  5
28A0
102
{ACAD_REACTORS
330
289F
102
}
330
289F
100
AcDbXrecord
 90
        1
  0
XRECORD
  5
28A1
102
{ACAD_REACTORS
330
289F
102
}
330
289F
100
AcDbXrecord
 90
       70
  0
XRECORD
  5
28B8
102
{ACAD_REACTORS
330
289F
102
}
330
289F
100
AcDbXrecord
340
0
  0
XRECORD
  5
28BE
102
{ACAD_REACTORS
330
289F
102
}
330
289F
100
AcDbXrecord
 10
0.0
 20
0.0
 30
0.0
  0
XRECORD
  5
28BA
102
{ACAD_REACTORS
330
289F
102
}
330
289F
100
AcDbXrecord
 10
0.0
 20
0.0
 30
0.0
  0
XRECORD
  5
28BD
102
{ACAD_REACTORS
330
289F
102
}
330
289F
100
AcDbXrecord
 10
0.0
 20
0.0
 30
0.0
  0
XRECORD
  5
28BB
102
{ACAD_REACTORS
330
289F
102
}
330
289F
100
AcDbXrecord
 10
0.0
 20
0.0
 30
0.0
  0
XRECORD
  5
28BC
102
{ACAD_REACTORS
330
289F
102
}
330
289F
100
AcDbXrecord
 10
0.0
 20
0.0
 30
0.0
  0
XRECORD
  5
28B9
102
{ACAD_REACTORS
330
289F
102
}
330
289F
100
AcDbXrecord
 10
0.0
 20
0.0
 30
0.0
  0
XRECORD
  5
28B6
102
{ACAD_REACTORS
330
289F
102
}
330
289F
100
AcDbXrecord
340
0
  0
XRECORD
  5
28B7
102
{ACAD_REACTORS
330
289F
102
}
330
289F
100
AcDbXrecord
 70
     0
  0
XRECORD
  5
28AB
102
{ACAD_REACTORS
330
289F
102
}
330
289F
100
AcDbXrecord
  1
{202B5482-8DB3-11D6-88E6-0090279574E7}
  0
DICTIONARYVAR
  5
289D
102
{ACAD_REACTORS
330
289C
102
}
330
289C
100
DictionaryVariables
280
     0
  1
1
  0
ENDSEC
  0
EOF
