  0
SECTION
  2
HEADER
  9
$ACADVER
  1
AC1014
  9
$ACADMAINTVER
 70
     9
  9
$DWGCODEPAGE
  3
ANSI_1252
  9
$INSBASE
 10
4.674486751200603
 20
2.028828502415458
 30
0.0
  9
$EXTMIN
 10
2.93150517197346
 20
1.289559898332877
 30
0.0
  9
$EXTMAX
 10
6.416724493720595
 20
2.843328502415458
 30
0.0
  9
$LIMMIN
 10
0.0
 20
0.0
  9
$LIMMAX
 10
18.0
 20
11.0
  9
$ORTHOMODE
 70
     1
  9
$REGENMODE
 70
     1
  9
$FILLMODE
 70
     1
  9
$QTEXTMODE
 70
     0
  9
$MIRRTEXT
 70
     0
  9
$DRAGMODE
 70
     2
  9
$LTSCALE
 40
1.0
  9
$OSMODE
 70
    39
  9
$ATTMODE
 70
     1
  9
$TEXTSIZE
 40
0.125
  9
$TRACEWID
 40
0.05
  9
$TEXTSTYLE
  7
ROMANS
  9
$CLAYER
  8
0
  9
$CELTYPE
  6
BYLAYER
  9
$CECOLOR
 62
   256
  9
$CELTSCALE
 40
1.0
  9
$DELOBJ
 70
     1
  9
$DISPSILH
 70
     1
  9
$DIMSCALE
 40
1.0
  9
$DIMASZ
 40
0.125
  9
$DIMEXO
 40
0.125
  9
$DIMDLI
 40
0.38
  9
$DIMRND
 40
0.0
  9
$DIMDLE
 40
0.0
  9
$DIMEXE
 40
0.125
  9
$DIMTP
 40
0.0
  9
$DIMTM
 40
0.0
  9
$DIMTXT
 40
0.125
  9
$DIMCEN
 40
-0.125
  9
$DIMTSZ
 40
0.0
  9
$DIMTOL
 70
     0
  9
$DIMLIM
 70
     0
  9
$DIMTIH
 70
     1
  9
$DIMTOH
 70
     1
  9
$DIMSE1
 70
     0
  9
$DIMSE2
 70
     0
  9
$DIMTAD
 70
     0
  9
$DIMZIN
 70
     4
  9
$DIMBLK
  1

  9
$DIMASO
 70
     1
  9
$DIMSHO
 70
     1
  9
$DIMPOST
  1

  9
$DIMAPOST
  1

  9
$DIMALT
 70
     0
  9
$DIMALTD
 70
     2
  9
$DIMALTF
 40
25.4
  9
$DIMLFAC
 40
1.0
  9
$DIMTOFL
 70
     0
  9
$DIMTVP
 40
0.0
  9
$DIMTIX
 70
     0
  9
$DIMSOXD
 70
     0
  9
$DIMSAH
 70
     0
  9
$DIMBLK1
  1

  9
$DIMBLK2
  1

  9
$DIMSTYLE
  2
STANDARD
  9
$DIMCLRD
 70
     0
  9
$DIMCLRE
 70
     0
  9
$DIMCLRT
 70
     0
  9
$DIMTFAC
 40
1.0
  9
$DIMGAP
 40
0.09
  9
$DIMJUST
 70
     0
  9
$DIMSD1
 70
     0
  9
$DIMSD2
 70
     0
  9
$DIMTOLJ
 70
     1
  9
$DIMTZIN
 70
     4
  9
$DIMALTZ
 70
     0
  9
$DIMALTTZ
 70
     0
  9
$DIMFIT
 70
     3
  9
$DIMUPT
 70
     0
  9
$DIMUNIT
 70
     2
  9
$DIMDEC
 70
     3
  9
$DIMTDEC
 70
     3
  9
$DIMALTU
 70
     2
  9
$DIMALTTD
 70
     2
  9
$DIMTXSTY
  7
ROMANS
  9
$DIMAUNIT
 70
     0
  9
$LUNITS
 70
     2
  9
$LUPREC
 70
     3
  9
$SKETCHINC
 40
0.1
  9
$FILLETRAD
 40
0.0
  9
$AUNITS
 70
     0
  9
$AUPREC
 70
     0
  9
$MENU
  1
ACAD
  9
$ELEVATION
 40
0.0
  9
$PELEVATION
 40
0.0
  9
$THICKNESS
 40
0.0
  9
$LIMCHECK
 70
     0
  9
$BLIPMODE
 70
     0
  9
$CHAMFERA
 40
0.0
  9
$CHAMFERB
 40
0.0
  9
$CHAMFERC
 40
0.0
  9
$CHAMFERD
 40
0.0
  9
$SKPOLY
 70
     0
  9
$TDCREATE
 40
2448481.485791088
  9
$TDUPDATE
 40
2452458.291073727
  9
$TDINDWG
 40
0.0074260995
  9
$TDUSRTIMER
 40
0.0074260995
  9
$USRTIMER
 70
     1
  9
$ANGBASE
 50
0.0
  9
$ANGDIR
 70
     0
  9
$PDMODE
 70
     0
  9
$PDSIZE
 40
0.0
  9
$PLINEWID
 40
0.0
  9
$COORDS
 70
     2
  9
$SPLFRAME
 70
     0
  9
$SPLINETYPE
 70
     6
  9
$SPLINESEGS
 70
     8
  9
$ATTDIA
 70
     0
  9
$ATTREQ
 70
     1
  9
$HANDLING
 70
 22529
  9
$HANDSEED
  5
1BA
  9
$SURFTAB1
 70
     6
  9
$SURFTAB2
 70
     6
  9
$SURFTYPE
 70
     6
  9
$SURFU
 70
     6
  9
$SURFV
 70
     6
  9
$UCSNAME
  2

  9
$UCSORG
 10
0.0
 20
0.0
 30
0.0
  9
$UCSXDIR
 10
1.0
 20
0.0
 30
0.0
  9
$UCSYDIR
 10
0.0
 20
1.0
 30
0.0
  9
$PUCSNAME
  2

  9
$PUCSORG
 10
0.0
 20
0.0
 30
0.0
  9
$PUCSXDIR
 10
1.0
 20
0.0
 30
0.0
  9
$PUCSYDIR
 10
0.0
 20
1.0
 30
0.0
  9
$USERI1
 70
     0
  9
$USERI2
 70
     0
  9
$USERI3
 70
     0
  9
$USERI4
 70
     0
  9
$USERI5
 70
     0
  9
$USERR1
 40
0.0
  9
$USERR2
 40
0.0
  9
$USERR3
 40
0.0
  9
$USERR4
 40
0.0
  9
$USERR5
 40
0.0
  9
$WORLDVIEW
 70
     1
  9
$SHADEDGE
 70
     3
  9
$SHADEDIF
 70
    70
  9
$TILEMODE
 70
     1
  9
$MAXACTVP
 70
    16
  9
$PINSBASE
 10
0.0
 20
0.0
 30
0.0
  9
$PLIMCHECK
 70
     0
  9
$PEXTMIN
 10
1.000000000000000E+20
 20
1.000000000000000E+20
 30
1.000000000000000E+20
  9
$PEXTMAX
 10
-1.000000000000000E+20
 20
-1.000000000000000E+20
 30
-1.000000000000000E+20
  9
$PLIMMIN
 10
0.0
 20
0.0
  9
$PLIMMAX
 10
12.0
 20
9.0
  9
$UNITMODE
 70
     0
  9
$VISRETAIN
 70
     0
  9
$PLINEGEN
 70
     1
  9
$PSLTSCALE
 70
     0
  9
$TREEDEPTH
 70
  3020
  9
$PICKSTYLE
 70
     1
  9
$CMLSTYLE
  2
STANDARD
  9
$CMLJUST
 70
     0
  9
$CMLSCALE
 40
1.0
  9
$PROXYGRAPHICS
 70
     1
  9
$MEASUREMENT
 70
     0
  0
ENDSEC
  0
SECTION
  2
CLASSES
  0
CLASS
  1
LWPOLYLINE
  2
AcDbPolyline
  3
AutoCAD 2000
 90
        0
280
     0
281
     1
  0
CLASS
  1
ACDBDICTIONARYWDFLT
  2
AcDbDictionaryWithDefault
  3
AutoCAD 2000
 90
        0
280
     0
281
     0
  0
CLASS
  1
ACDBPLACEHOLDER
  2
AcDbPlaceHolder
  3
AutoCAD 2000
 90
        0
280
     0
281
     0
  0
CLASS
  1
LAYOUT
  2
AcDbLayout
  3
AutoCAD 2000
 90
        0
280
     0
281
     0
  0
CLASS
  1
DICTIONARYVAR
  2
AcDbDictionaryVar
  3
AutoCAD 2000
 90
        0
280
     0
281
     0
  0
CLASS
  1
LONG_TRANSACTION
  2
AcDbLongTransaction
  3
AutoCAD 2000
 90
        0
280
     0
281
     0
  0
CLASS
  1
LWPOLYLINE
  2
AcDbPolyline
  3
AutoCAD 2000
 90
        0
280
     0
281
     1
  0
CLASS
  1
HATCH
  2
AcDbHatch
  3
AutoCAD 2000
 90
        0
280
     0
281
     1
  0
CLASS
  1
XRECORD
  2
AcDbXrecord
  3
AutoCAD 2000
 90
        0
280
     0
281
     0
  0
ENDSEC
  0
SECTION
  2
TABLES
  0
TABLE
  2
VPORT
  5
8
330
0
100
AcDbSymbolTable
 70
     2
  0
VPORT
  5
195
330
8
100
AcDbSymbolTableRecord
100
AcDbViewportTableRecord
  2
*ACTIVE
 70
     0
 10
0.0
 20
0.0
 11
1.0
 21
1.0
 12
7.649297379231043
 22
2.066276571906962
 13
0.0
 23
0.0
 14
0.015625
 24
0.015625
 15
0.0
 25
0.0
 16
0.0
 26
0.0
 36
1.0
 17
0.0
 27
0.0
 37
0.0
 40
2.281748181188984
 41
4.320930232558139
 42
50.0
 43
0.0
 44
0.0
 50
0.0
 51
0.0
 71
     0
 72
  2000
 73
     1
 74
     0
 75
     1
 76
     0
 77
     0
 78
     0
  0
ENDTAB
  0
TABLE
  2
LTYPE
  5
5
330
0
100
AcDbSymbolTable
 70
     1
  0
LTYPE
  5
12
330
5
100
AcDbSymbolTableRecord
100
AcDbLinetypeTableRecord
  2
BYBLOCK
 70
     0
  3

 72
    65
 73
     0
 40
0.0
  0
LTYPE
  5
13
330
5
100
AcDbSymbolTableRecord
100
AcDbLinetypeTableRecord
  2
BYLAYER
 70
     0
  3

 72
    65
 73
     0
 40
0.0
  0
LTYPE
  5
14
330
5
100
AcDbSymbolTableRecord
100
AcDbLinetypeTableRecord
  2
CONTINUOUS
 70
     0
  3
Solid line
 72
    65
 73
     0
 40
0.0
  0
ENDTAB
  0
TABLE
  2
LAYER
  5
2
330
0
100
AcDbSymbolTable
 70
     2
  0
LAYER
  5
F
330
2
100
AcDbSymbolTableRecord
100
AcDbLayerTableRecord
  2
0
 70
     0
 62
     7
  6
CONTINUOUS
  0
LAYER
  5
1F
330
2
100
AcDbSymbolTableRecord
100
AcDbLayerTableRecord
  2
TEXT
 70
     0
 62
     3
  6
CONTINUOUS
  0
ENDTAB
  0
TABLE
  2
STYLE
  5
3
330
0
100
AcDbSymbolTable
 70
     3
  0
STYLE
  5
10
330
3
100
AcDbSymbolTableRecord
100
AcDbTextStyleTableRecord
  2
STANDARD
 70
     0
 40
0.0
 41
1.0
 50
0.0
 71
     0
 42
0.125
  3
txt
  4

  0
STYLE
  5
1C
330
3
100
AcDbSymbolTableRecord
100
AcDbTextStyleTableRecord
  2
ITALICC
 70
     0
 40
0.0
 41
1.0
 50
0.0
 71
     0
 42
0.125
  3
italicc
  4

  0
STYLE
  5
185
330
3
100
AcDbSymbolTableRecord
100
AcDbTextStyleTableRecord
  2
ROMANS
 70
     0
 40
0.0
 41
1.0
 50
0.0
 71
     0
 42
0.125
  3
romans.shx
  4

  0
ENDTAB
  0
TABLE
  2
VIEW
  5
6
330
0
100
AcDbSymbolTable
 70
     0
  0
ENDTAB
  0
TABLE
  2
UCS
  5
7
330
0
100
AcDbSymbolTable
 70
     0
  0
ENDTAB
  0
TABLE
  2
APPID
  5
9
330
0
100
AcDbSymbolTable
 70
     1
  0
APPID
  5
11
330
9
100
AcDbSymbolTableRecord
100
AcDbRegAppTableRecord
  2
ACAD
 70
     0
  0
ENDTAB
  0
TABLE
  2
DIMSTYLE
  5
A
330
0
100
AcDbSymbolTable
 70
     1
  0
DIMSTYLE
105
178
330
A
100
AcDbSymbolTableRecord
100
AcDbDimStyleTableRecord
  2
STANDARD
 70
     0
  3

  4

  5

  6

  7

 40
1.0
 41
0.125
 42
0.125
 43
0.38
 44
0.125
 45
0.0
 46
0.0
 47
0.0
 48
0.0
140
0.125
141
-0.125
142
0.0
143
25.4
144
1.0
145
0.0
146
1.0
147
0.09
 71
     0
 72
     0
 73
     1
 74
     1
 75
     0
 76
     0
 77
     0
 78
     4
170
     0
171
     2
172
     0
173
     0
174
     0
175
     0
176
     0
177
     0
178
     0
270
     2
271
     3
272
     3
273
     2
274
     2
340
185
275
     0
280
     0
281
     0
282
     0
283
     1
284
     4
285
     0
286
     0
287
     3
288
     0
  0
ENDTAB
  0
TABLE
  2
BLOCK_RECORD
  5
1
330
0
100
AcDbSymbolTable
 70
     0
  0
BLOCK_RECORD
  5
18
102
{ACAD_XDICTIONARY
360
1B8
102
}
330
1
100
AcDbSymbolTableRecord
100
AcDbBlockTableRecord
  2
*MODEL_SPACE
  0
BLOCK_RECORD
  5
15
102
{ACAD_XDICTIONARY
360
1B6
102
}
330
1
100
AcDbSymbolTableRecord
100
AcDbBlockTableRecord
  2
*PAPER_SPACE
  0
ENDTAB
  0
ENDSEC
  0
SECTION
  2
BLOCKS
  0
BLOCK
  5
22
330
18
100
AcDbEntity
  8
0
100
AcDbBlockBegin
  2
*MODEL_SPACE
 70
     0
 10
0.0
 20
0.0
 30
0.0
  3
*MODEL_SPACE
  1

  0
ENDBLK
  5
23
330
18
100
AcDbEntity
  8
0
100
AcDbBlockEnd
  0
BLOCK
  5
20
330
15
100
AcDbEntity
 67
     1
  8
0
100
AcDbBlockBegin
  2
*PAPER_SPACE
 70
     0
 10
0.0
 20
0.0
 30
0.0
  3
*PAPER_SPACE
  1

  0
ENDBLK
  5
21
330
15
100
AcDbEntity
 67
     1
  8
0
100
AcDbBlockEnd
  0
ENDSEC
  0
SECTION
  2
ENTITIES
  0
LWPOLYLINE
  5
24
330
18
100
AcDbEntity
  8
0
100
AcDbPolyline
 90
       20
 70
     1
 43
0.0
 10
4.392329324898897
 20
2.074276799267567
 10
4.382777621751007
 20
2.083828502415458
 10
4.139486751200603
 20
2.083828502415458
 10
4.139486751200603
 20
2.813328502415457
 42
0.9999999999999998
 10
4.084486751200604
 20
2.813328502415457
 10
4.084486751200603
 20
2.059828502415458
 42
0.4142135623730953
 10
4.115486751200602
 20
2.028828502415458
 10
5.233486751200604
 20
2.028828502415458
 42
0.4142135623730951
 10
5.264486751200603
 20
2.059828502415458
 10
5.264486751200602
 20
2.813328502415458
 42
0.9999999999999998
 10
5.209486751200603
 20
2.813328502415458
 10
5.209486751200603
 20
2.083828502415458
 10
4.967400824847525
 20
2.083828502415458
 10
4.956793788024064
 20
2.073221465591996
 10
4.946186751200603
 20
2.083828502415458
 10
4.704486751200603
 20
2.083828502415458
 10
4.704486751200603
 20
2.813328502415457
 42
0.9999999999999998
 10
4.644486751200602
 20
2.813328502415457
 10
4.644486751200603
 20
2.083828502415458
 10
4.401881028046786
 20
2.083828502415458
  0
TEXT
  5
3A
330
18
100
AcDbEntity
  8
TEXT
100
AcDbText
 10
3.921510560724413
 20
1.747578502415458
 30
0.0
 40
0.125
  1
PART #110008
  7
ITALICC
 72
     1
 11
4.674486751200603
 21
1.747578502415458
 31
0.0
100
AcDbText
  0
TEXT
  5
3B
330
18
100
AcDbEntity
  8
TEXT
100
AcDbText
 10
5.087791909450924
 20
1.300655859743083
 30
0.0
 40
0.0522247191011236
  1
Phone  1-800-328-2495
 41
1.272321428571429
 72
     5
 11
6.416724493720588
 21
1.300655859743083
 31
0.0
100
AcDbText
  0
TEXT
  5
3C
330
18
100
AcDbEntity
  8
TEXT
100
AcDbText
 10
5.087791909450924
 20
1.580431140641959
 30
0.0
 40
0.0522247191011236
  1
Stylmark  Incorporated
 41
1.221428571428573
 72
     5
 11
6.416724493720588
 21
1.580431140641959
 31
0.0
100
AcDbText
  0
TEXT
  5
3D
330
18
100
AcDbEntity
  8
TEXT
100
AcDbText
 10
5.087791909450924
 20
1.487172713675667
 30
0.0
 40
0.0522247191011236
  1
6536 Main St. N.E. * P.O. Box 32008
 41
0.8388932496075366
 72
     5
 11
6.416724493720588
 21
1.487172713675667
 31
0.0
100
AcDbText
  0
TEXT
  5
3E
330
18
100
AcDbEntity
  8
TEXT
100
AcDbText
 10
5.087791909450924
 20
1.393914286709375
 30
0.0
 40
0.0522247191011236
  1
Minneapolis, MN 55432-0008
 41
1.11444212721585
 72
     5
 11
6.416724493720588
 21
1.393914286709375
 31
0.0
100
AcDbText
  0
LWPOLYLINE
  5
3F
330
18
100
AcDbEntity
  8
TEXT
100
AcDbPolyline
 90
        3
 70
     0
 43
0.0006660908203125
 10
2.931838217383616
 20
1.414300622380518
 10
2.931838217383616
 20
1.30106518292739
 10
3.045073656836739
 20
1.30106518292739
  0
LWPOLYLINE
  5
44
330
18
100
AcDbEntity
  8
TEXT
100
AcDbPolyline
 90
        3
 70
     0
 43
0.0006660908203125
 10
2.958481850196114
 20
1.414300622380518
 10
2.958481850196114
 20
1.327708815739891
 10
3.045073656836739
 20
1.327708815739891
  0
LWPOLYLINE
  5
49
330
18
100
AcDbEntity
  8
TEXT
100
AcDbPolyline
 90
        2
 70
     0
 43
0.0001332181640625
 10
3.005108207617991
 20
1.424291984685203
 10
2.931838217383616
 20
1.414300622380518
  0
LWPOLYLINE
  5
4D
330
18
100
AcDbEntity
  8
TEXT
100
AcDbPolyline
 90
        2
 70
     0
 43
0.0001332181640625
 10
2.958481850196114
 20
1.414300622380518
 10
3.018430024024241
 20
1.424291984685203
  0
LWPOLYLINE
  5
51
330
18
100
AcDbEntity
  8
TEXT
100
AcDbPolyline
 90
        2
 70
     0
 43
0.0001332181640625
 10
2.958481850196114
 20
1.327708815739891
 10
3.018430024024241
 20
1.387656989568017
  0
LWPOLYLINE
  5
55
330
18
100
AcDbEntity
  8
TEXT
100
AcDbPolyline
 90
        3
 70
     0
 43
0.0006660908203125
 10
3.045073656836739
 20
1.567501511052393
 10
2.931838217383616
 20
1.567501511052393
 10
2.931838217383616
 20
1.454266071599266
  0
LWPOLYLINE
  5
5A
330
18
100
AcDbEntity
  8
TEXT
100
AcDbPolyline
 90
        3
 70
     0
 43
0.0006660908203125
 10
3.045073656836739
 20
1.540857878239892
 10
2.958481850196114
 20
1.540857878239892
 10
2.958481850196114
 20
1.454266071599266
  0
LWPOLYLINE
  5
5F
330
18
100
AcDbEntity
  8
TEXT
100
AcDbPolyline
 90
        2
 70
     0
 43
0.0001332181640625
 10
2.958481850196114
 20
1.540857878239892
 10
3.018430024024239
 20
1.480909704411767
  0
LWPOLYLINE
  5
63
330
18
100
AcDbEntity
  8
TEXT
100
AcDbPolyline
 90
        2
 70
     0
 43
0.0001332181640625
 10
2.958481850196114
 20
1.454266071599266
 10
3.018430024024239
 20
1.444274709294577
  0
LWPOLYLINE
  5
67
330
18
100
AcDbEntity
  8
TEXT
100
AcDbPolyline
 90
        2
 70
     0
 43
0.0001332181640625
 10
2.931838217383616
 20
1.454266071599266
 10
3.005108207617991
 20
1.444274709294577
  0
LWPOLYLINE
  5
6B
330
18
100
AcDbEntity
  8
TEXT
100
AcDbPolyline
 90
        2
 70
     0
 43
0.0006660908203125
 10
2.958481850196114
 20
1.414300622380518
 10
2.931838217383616
 20
1.414300622380518
  0
LWPOLYLINE
  5
6F
330
18
100
AcDbEntity
  8
TEXT
100
AcDbPolyline
 90
        2
 70
     0
 43
0.0006660908203125
 10
2.958481850196114
 20
1.454266071599266
 10
2.931838217383616
 20
1.454266071599266
  0
LINE
  5
73
330
18
100
AcDbEntity
  8
TEXT
100
AcDbLine
 10
4.447028646510114
 20
1.503224816395624
 30
0.0
 11
4.339822373122824
 21
1.503224816395624
 31
0.0
  0
LINE
  5
74
330
18
100
AcDbEntity
  8
TEXT
100
AcDbLine
 10
4.476059544854592
 20
1.56750151105239
 30
0.0
 11
4.341227635637533
 21
1.56750151105239
 31
0.0
  0
ARC
  5
75
330
18
100
AcDbEntity
  8
TEXT
100
AcDbCircle
 10
4.40054173203085
 20
1.398264261789373
 30
0.0
 40
0.0676855811441166
100
AcDbArc
 50
90.0
 51
153.7768192527749
  0
LWPOLYLINE
  5
76
330
18
100
AcDbEntity
  8
TEXT
100
AcDbPolyline
 90
        2
 70
     0
 43
0.0
 10
4.338789877668014
 20
1.344519423014317
 42
0.2901071551932823
 10
4.38186581053565
 20
1.301028478063879
 42
5.328517124445801
  0
ARC
  5
7A
330
18
100
AcDbEntity
  8
TEXT
100
AcDbCircle
 10
3.695410354359364
 20
1.360820869401929
 30
0.0
 40
0.0601160179737537
100
AcDbArc
 50
180.0000000000003
 51
264.0521544866073
  0
LINE
  5
7B
330
18
100
AcDbEntity
  8
TEXT
100
AcDbLine
 10
3.698925709984912
 20
1.601889428646528
 30
0.0
 11
3.638883105140905
 21
1.601889428646528
 31
0.0
  0
ARC
  5
7C
330
18
100
AcDbEntity
  8
TEXT
100
AcDbCircle
 10
3.463151352242394
 20
1.485414051605888
 30
0.0
 40
0.0820874594465043
100
AcDbArc
 50
90.0
 51
270.0
  0
LWPOLYLINE
  5
7D
330
18
100
AcDbEntity
  8
TEXT
100
AcDbPolyline
 90
        2
 70
     0
 43
0.0001332181640625
 10
3.055065019141429
 20
1.494231520818014
 10
3.045073656836739
 20
1.567501511052393
  0
LWPOLYLINE
  5
81
330
18
100
AcDbEntity
  8
TEXT
100
AcDbPolyline
 90
        2
 70
     0
 43
0.0001332181640625
 10
3.045073656836739
 20
1.540857878239892
 10
3.055065019141429
 20
1.480909704411767
  0
LWPOLYLINE
  5
85
330
18
100
AcDbEntity
  8
TEXT
100
AcDbPolyline
 90
        3
 70
     0
 43
0.0006660908203125
 10
3.198274545508616
 20
1.454266071599266
 10
3.198274545508616
 20
1.567501511052393
 10
3.08503910605549
 20
1.567501511052393
  0
LWPOLYLINE
  5
8A
330
18
100
AcDbEntity
  8
TEXT
100
AcDbPolyline
 90
        3
 70
     0
 43
0.0006660908203125
 10
3.171630912696115
 20
1.454266071599266
 10
3.171630912696115
 20
1.540857878239892
 10
3.08503910605549
 20
1.540857878239892
  0
LWPOLYLINE
  5
8F
330
18
100
AcDbEntity
  8
TEXT
100
AcDbPolyline
 90
        2
 70
     0
 43
0.0001332181640625
 10
3.171630912696115
 20
1.540857878239892
 10
3.111682738867991
 20
1.480909704411767
  0
LWPOLYLINE
  5
93
330
18
100
AcDbEntity
  8
TEXT
100
AcDbPolyline
 90
        2
 70
     0
 43
0.0001332181640625
 10
3.08503910605549
 20
1.540857878239892
 10
3.075047743750801
 20
1.480909704411767
  0
LWPOLYLINE
  5
97
330
18
100
AcDbEntity
  8
TEXT
100
AcDbPolyline
 90
        2
 70
     0
 43
0.0001332181640625
 10
3.08503910605549
 20
1.567501511052393
 10
3.075047743750801
 20
1.494231520818014
  0
LWPOLYLINE
  5
9B
330
18
100
AcDbEntity
  8
TEXT
100
AcDbPolyline
 90
        2
 70
     0
 43
0.0001332181640625
 10
3.12500455527424
 20
1.444274709294577
 10
3.198274545508616
 20
1.454266071599266
  0
LWPOLYLINE
  5
9F
330
18
100
AcDbEntity
  8
TEXT
100
AcDbPolyline
 90
        2
 70
     0
 43
0.0001332181640625
 10
3.171630912696115
 20
1.454266071599266
 10
3.111682738867991
 20
1.444274709294577
  0
LWPOLYLINE
  5
A3
330
18
100
AcDbEntity
  8
TEXT
100
AcDbPolyline
 90
        2
 70
     0
 43
0.0001332181640625
 10
3.198274545508616
 20
1.414300622380518
 10
3.12500455527424
 20
1.424291984685203
  0
LWPOLYLINE
  5
A7
330
18
100
AcDbEntity
  8
TEXT
100
AcDbPolyline
 90
        2
 70
     0
 43
0.0001332181640625
 10
3.171630912696115
 20
1.414300622380518
 10
3.111682738867991
 20
1.424291984685203
  0
LWPOLYLINE
  5
AB
330
18
100
AcDbEntity
  8
TEXT
100
AcDbPolyline
 90
        2
 70
     0
 43
0.0001332181640625
 10
3.171630912696115
 20
1.327708815739891
 10
3.111682738867991
 20
1.387656989568017
  0
LWPOLYLINE
  5
AF
330
18
100
AcDbEntity
  8
TEXT
100
AcDbPolyline
 90
        3
 70
     0
 43
0.0006660908203125
 10
3.08503910605549
 20
1.327708815739891
 10
3.171630912696115
 20
1.327708815739891
 10
3.171630912696115
 20
1.414300622380518
  0
LWPOLYLINE
  5
B4
330
18
100
AcDbEntity
  8
TEXT
100
AcDbPolyline
 90
        3
 70
     0
 43
0.0006660908203125
 10
3.08503910605549
 20
1.30106518292739
 10
3.198274545508616
 20
1.30106518292739
 10
3.198274545508616
 20
1.414300622380518
  0
LWPOLYLINE
  5
B9
330
18
100
AcDbEntity
  8
TEXT
100
AcDbPolyline
 90
        5
 70
     0
 43
0.0001332181640625
 10
3.055065019141429
 20
1.374335173161766
 10
3.055065019141429
 20
1.387656989568017
 10
3.018430024024241
 20
1.387656989568017
 10
3.018430024024241
 20
1.424291984685203
 10
3.005108207617991
 20
1.424291984685203
  0
LWPOLYLINE
  5
C0
330
18
100
AcDbEntity
  8
TEXT
100
AcDbPolyline
 90
        2
 70
     0
 43
0.0006660908203125
 10
3.045073656836739
 20
1.327708815739891
 10
3.045073656836739
 20
1.30106518292739
  0
LWPOLYLINE
  5
C4
330
18
100
AcDbEntity
  8
TEXT
100
AcDbPolyline
 90
        2
 70
     0
 43
0.0001332181640625
 10
3.045073656836739
 20
1.327708815739891
 10
3.055065019141429
 20
1.387656989568017
  0
LWPOLYLINE
  5
C8
330
18
100
AcDbEntity
  8
TEXT
100
AcDbPolyline
 90
        2
 70
     0
 43
0.0001332181640625
 10
3.045073656836739
 20
1.30106518292739
 10
3.055065019141429
 20
1.374335173161766
  0
LWPOLYLINE
  5
CC
330
18
100
AcDbEntity
  8
TEXT
100
AcDbPolyline
 90
        5
 70
     0
 43
0.0001332181640625
 10
3.005108207617991
 20
1.444274709294577
 10
3.018430024024239
 20
1.444274709294577
 10
3.018430024024239
 20
1.480909704411767
 10
3.055065019141429
 20
1.480909704411767
 10
3.055065019141429
 20
1.494231520818014
  0
LWPOLYLINE
  5
D3
330
18
100
AcDbEntity
  8
TEXT
100
AcDbPolyline
 90
        5
 70
     0
 43
0.0001332181640625
 10
3.075047743750801
 20
1.494231520818014
 10
3.075047743750801
 20
1.480909704411767
 10
3.111682738867991
 20
1.480909704411767
 10
3.111682738867991
 20
1.444274709294577
 10
3.12500455527424
 20
1.444274709294577
  0
LWPOLYLINE
  5
DA
330
18
100
AcDbEntity
  8
TEXT
100
AcDbPolyline
 90
        2
 70
     0
 43
0.0001332181640625
 10
3.08503910605549
 20
1.327708815739891
 10
3.075047743750801
 20
1.387656989568017
  0
LWPOLYLINE
  5
DE
330
18
100
AcDbEntity
  8
TEXT
100
AcDbPolyline
 90
        2
 70
     0
 43
0.0001332181640625
 10
3.075047743750801
 20
1.374335173161766
 10
3.08503910605549
 20
1.30106518292739
  0
LWPOLYLINE
  5
E2
330
18
100
AcDbEntity
  8
TEXT
100
AcDbPolyline
 90
        2
 70
     0
 43
0.0006660908203125
 10
3.08503910605549
 20
1.327708815739891
 10
3.08503910605549
 20
1.30106518292739
  0
LWPOLYLINE
  5
E6
330
18
100
AcDbEntity
  8
TEXT
100
AcDbPolyline
 90
        5
 70
     0
 43
0.0001332181640625
 10
3.12500455527424
 20
1.424291984685203
 10
3.111682738867991
 20
1.424291984685203
 10
3.111682738867991
 20
1.387656989568017
 10
3.075047743750801
 20
1.387656989568017
 10
3.075047743750801
 20
1.374335173161766
  0
LWPOLYLINE
  5
ED
330
18
100
AcDbEntity
  8
TEXT
100
AcDbPolyline
 90
        2
 70
     0
 43
0.0006660908203125
 10
3.171630912696115
 20
1.454266071599266
 10
3.198274545508616
 20
1.454266071599266
  0
LWPOLYLINE
  5
F1
330
18
100
AcDbEntity
  8
TEXT
100
AcDbPolyline
 90
        2
 70
     0
 43
0.0006660908203125
 10
3.171630912696115
 20
1.414300622380518
 10
3.198274545508616
 20
1.414300622380518
  0
LINE
  5
F5
330
18
100
AcDbEntity
  8
TEXT
100
AcDbLine
 10
3.468388682356641
 20
1.503224816395624
 30
0.0
 11
3.635294336385612
 21
1.503224816395624
 31
0.0
  0
LINE
  5
F6
330
18
100
AcDbEntity
  8
TEXT
100
AcDbLine
 10
3.533988818600942
 20
1.467420094784996
 30
0.0
 11
3.468388682356641
 21
1.467420094784996
 31
0.0
  0
LINE
  5
F7
330
18
100
AcDbEntity
  8
TEXT
100
AcDbLine
 10
3.381063892795889
 20
1.301028478063879
 30
0.0
 11
3.533988818600942
 21
1.301028478063879
 31
0.0
  0
LINE
  5
F8
330
18
100
AcDbEntity
  8
TEXT
100
AcDbLine
 10
3.538929192507222
 20
1.369385484397318
 30
0.0
 11
3.381063892795888
 21
1.369385484397318
 31
0.0
  0
LINE
  5
F9
330
18
100
AcDbEntity
  8
TEXT
100
AcDbLine
 10
3.463151352242393
 20
1.403326592159383
 30
0.0
 11
3.538929192507222
 21
1.403326592159383
 31
0.0
  0
ARC
  5
FA
330
18
100
AcDbEntity
  8
TEXT
100
AcDbCircle
 10
3.468388682356642
 20
1.485322455590312
 30
0.0
 40
0.017902360805315
100
AcDbArc
 50
90.0
 51
270.0
  0
LINE
  5
FB
330
18
100
AcDbEntity
  8
TEXT
100
AcDbLine
 10
3.381063892795888
 20
1.369385484397318
 30
0.0
 11
3.381063892795889
 21
1.301028478063879
 31
0.0
  0
LINE
  5
FC
330
18
100
AcDbEntity
  8
TEXT
100
AcDbLine
 10
3.635294336385612
 20
1.503224816395624
 30
0.0
 11
3.635294336385612
 21
1.360820869401929
 31
0.0
  0
ARC
  5
FD
330
18
100
AcDbEntity
  8
TEXT
100
AcDbCircle
 10
3.533988818600943
 20
1.384224286424436
 30
0.0
 40
0.0831958083605586
100
AcDbArc
 50
270.0
 51
90.0
  0
ARC
  5
FE
330
18
100
AcDbEntity
  8
TEXT
100
AcDbCircle
 10
3.538929192507223
 20
1.386356038278352
 30
0.0
 40
0.0169705538810321
100
AcDbArc
 50
270.0
 51
90.0
  0
LWPOLYLINE
  5
FF
330
18
100
AcDbEntity
  8
TEXT
100
AcDbPolyline
 90
        2
 70
     0
 43
0.0006660908203125
 10
3.045073656836739
 20
1.540857878239892
 10
3.045073656836739
 20
1.567501511052393
  0
LWPOLYLINE
  5
103
330
18
100
AcDbEntity
  8
TEXT
100
AcDbPolyline
 90
        2
 70
     0
 43
0.0006660908203125
 10
3.08503910605549
 20
1.540857878239892
 10
3.08503910605549
 20
1.567501511052393
  0
LINE
  5
107
330
18
100
AcDbEntity
  8
TEXT
100
AcDbLine
 10
3.638883105140905
 20
1.56750151105239
 30
0.0
 11
3.463151352242393
 21
1.56750151105239
 31
0.0
  0
LINE
  5
108
330
18
100
AcDbEntity
  8
TEXT
100
AcDbLine
 10
3.638883105140905
 20
1.601889428646528
 30
0.0
 11
3.638883105140905
 21
1.56750151105239
 31
0.0
  0
LINE
  5
109
330
18
100
AcDbEntity
  8
TEXT
100
AcDbLine
 10
3.829354997160757
 20
1.466629514939269
 30
0.0
 11
3.77072467612882
 21
1.56750151105239
 31
0.0
  0
LINE
  5
10A
330
18
100
AcDbEntity
  8
TEXT
100
AcDbLine
 10
3.888103559966623
 20
1.56750151105239
 30
0.0
 11
3.829354997160757
 21
1.466629514939269
 31
0.0
  0
LINE
  5
10B
330
18
100
AcDbEntity
  8
TEXT
100
AcDbLine
 10
3.985034185326364
 20
1.383416316166878
 30
0.0
 11
3.985034185326364
 21
1.6355129887912
 31
0.0
  0
LINE
  5
10C
330
18
100
AcDbEntity
  8
TEXT
100
AcDbLine
 10
4.017346039464024
 20
1.56750151105239
 30
0.0
 11
4.017346039464024
 21
1.366637304319981
 31
0.0
  0
LINE
  5
10D
330
18
100
AcDbEntity
  8
TEXT
100
AcDbLine
 10
4.017346039464024
 20
1.366637304319981
 30
0.0
 11
4.000352402579423
 21
1.366637304319981
 31
0.0
  0
LINE
  5
10E
330
18
100
AcDbEntity
  8
TEXT
100
AcDbLine
 10
3.986173758822559
 20
1.301028478063879
 30
0.0
 11
4.084177092521994
 21
1.301028478063879
 31
0.0
  0
LINE
  5
10F
330
18
100
AcDbEntity
  8
TEXT
100
AcDbLine
 10
3.819754760163803
 20
1.320986984168892
 30
0.0
 11
3.917054466257248
 21
1.48533719510416
 31
0.0
  0
ARC
  5
110
330
18
100
AcDbEntity
  8
TEXT
100
AcDbCircle
 10
3.785711200251589
 20
1.340576200337574
 30
0.0
 40
0.0392772371940762
100
AcDbArc
 50
270.1604552698595
 51
330.0831797321295
  0
LINE
  5
111
330
18
100
AcDbEntity
  8
TEXT
100
AcDbLine
 10
3.689180943865718
 20
1.301028478063879
 30
0.0
 11
3.785821194940712
 21
1.301299117162161
 31
0.0
  0
LWPOLYLINE
  5
112
330
18
100
AcDbEntity
  8
TEXT
100
AcDbPolyline
 90
        6
 70
     1
 43
0.0
 10
3.731704747440867
 20
1.503224816395624
 10
3.701388153220659
 20
1.503224816395624
 10
3.701388153220659
 20
1.38011381834073
 42
0.407328721240804
 10
3.712931804382136
 20
1.368294903664344
 10
3.773553503426867
 20
1.368294903664344
 10
3.791018843834184
 20
1.401107132707823
  0
LINE
  5
11A
330
18
100
AcDbEntity
  8
TEXT
100
AcDbLine
 10
3.917054466257248
 20
1.48533719510416
 30
0.0
 11
3.917054466257248
 21
1.352579820278803
 31
0.0
  0
ARC
  5
11B
330
18
100
AcDbEntity
  8
TEXT
100
AcDbCircle
 10
4.000352402579421
 20
1.382019110563407
 30
0.0
 40
0.0153818062434269
100
AcDbArc
 50
174.7883570302258
 51
270.0
  0
LWPOLYLINE
  5
11C
330
18
100
AcDbEntity
  8
TEXT
100
AcDbPolyline
 90
        2
 70
     0
 43
0.0
 10
3.917054466257246
 20
1.352579820278807
 42
0.3318488747599744
 10
3.986173758822559
 20
1.301028478063879
 42
-6.868794160588311
  0
LINE
  5
120
330
18
100
AcDbEntity
  8
TEXT
100
AcDbLine
 10
4.141566161511255
 20
1.301028478063879
 30
0.0
 11
4.208624208293095
 21
1.301028478063879
 31
0.0
  0
LINE
  5
121
330
18
100
AcDbEntity
  8
TEXT
100
AcDbLine
 10
4.141566161511255
 20
1.495671027229514
 30
0.0
 11
4.141566161511255
 21
1.301028478063879
 31
0.0
  0
LINE
  5
122
330
18
100
AcDbEntity
  8
TEXT
100
AcDbLine
 10
4.084177092521994
 20
1.503224816395624
 30
0.0
 11
4.134012372345141
 21
1.503224816395624
 31
0.0
  0
LINE
  5
123
330
18
100
AcDbEntity
  8
TEXT
100
AcDbLine
 10
4.084177092521994
 20
1.301028478063879
 30
0.0
 11
4.084177092521994
 21
1.503224816395624
 31
0.0
  0
LWPOLYLINE
  5
124
330
18
100
AcDbEntity
  8
TEXT
100
AcDbPolyline
 90
        2
 70
     0
 43
0.0
 10
4.134012372345139
 20
1.503224816395624
 42
-0.4142135623731017
 10
4.141566161511253
 20
1.495671027229514
 42
-0.9999999999999998
  0
LINE
  5
128
330
18
100
AcDbEntity
  8
TEXT
100
AcDbLine
 10
4.339822373122824
 20
1.503224816395624
 30
0.0
 11
4.339822373122824
 21
1.428172410321418
 31
0.0
  0
LINE
  5
129
330
18
100
AcDbEntity
  8
TEXT
100
AcDbLine
 10
4.208624208293095
 20
1.503224816395624
 30
0.0
 11
4.262757805214045
 21
1.503224816395624
 31
0.0
  0
LINE
  5
12A
330
18
100
AcDbEntity
  8
TEXT
100
AcDbLine
 10
4.208624208293095
 20
1.301028478063879
 30
0.0
 11
4.208624208293095
 21
1.503224816395624
 31
0.0
  0
LWPOLYLINE
  5
12B
330
18
100
AcDbEntity
  8
TEXT
100
AcDbPolyline
 90
        2
 70
     0
 43
0.0
 10
4.262757805214043
 20
1.503224816395624
 42
-0.4142135623731017
 10
4.270311594380157
 20
1.495671027229514
 42
-0.9999999999999998
  0
LWPOLYLINE
  5
12F
330
18
100
AcDbEntity
  8
TEXT
100
AcDbPolyline
 90
        4
 70
     0
 43
0.0
 10
4.270311594380157
 20
1.495671027229514
 10
4.270311594380157
 20
1.301028478063879
 10
4.338789877668014
 20
1.301028478063879
 10
4.338789877668014
 20
1.344519423014317
 42
-1.714843617202739
  0
LINE
  5
135
330
18
100
AcDbEntity
  8
TEXT
100
AcDbLine
 10
3.698925709984912
 20
1.56750151105239
 30
0.0
 11
3.698925709984912
 21
1.601889428646528
 31
0.0
  0
LINE
  5
136
330
18
100
AcDbEntity
  8
TEXT
100
AcDbLine
 10
3.77072467612882
 20
1.56750151105239
 30
0.0
 11
3.698925709984912
 21
1.56750151105239
 31
0.0
  0
LINE
  5
137
330
18
100
AcDbEntity
  8
TEXT
100
AcDbLine
 10
3.918225472759999
 20
1.56750151105239
 30
0.0
 11
3.888103559966623
 21
1.56750151105239
 31
0.0
  0
LINE
  5
138
330
18
100
AcDbEntity
  8
TEXT
100
AcDbLine
 10
3.918225472759999
 20
1.6355129887912
 30
0.0
 11
3.918225472759999
 21
1.56750151105239
 31
0.0
  0
LINE
  5
139
330
18
100
AcDbEntity
  8
TEXT
100
AcDbLine
 10
3.985034185326364
 20
1.6355129887912
 30
0.0
 11
3.918225472759999
 21
1.6355129887912
 31
0.0
  0
LWPOLYLINE
  5
13A
330
18
100
AcDbEntity
  8
TEXT
100
AcDbPolyline
 90
        3
 70
     0
 43
0.0
 10
4.305445944924366
 20
1.567501511052393
 10
4.187145786108322
 20
1.567501511052393
 10
4.187145786108322
 20
1.540334014291497
 42
-1.960274751411753
  0
LINE
  5
13F
330
18
100
AcDbEntity
  8
TEXT
100
AcDbLine
 10
4.151364095395161
 20
1.56750151105239
 30
0.0
 11
4.017346039464024
 21
1.56750151105239
 31
0.0
  0
LWPOLYLINE
  5
140
330
18
100
AcDbEntity
  8
TEXT
100
AcDbPolyline
 90
        2
 70
     0
 43
0.0
 10
4.151364095395161
 20
1.567501511052393
 42
-0.3328679258950098
 10
4.187145786108322
 20
1.540334014291497
 42
6.772930709997214
  0
LINE
  5
144
330
18
100
AcDbEntity
  8
TEXT
100
AcDbLine
 10
4.341227635637533
 20
1.56750151105239
 30
0.0
 11
4.341227635637533
 21
1.539178965282746
 31
0.0
  0
LWPOLYLINE
  5
145
330
18
100
AcDbEntity
  8
TEXT
100
AcDbPolyline
 90
        2
 70
     0
 43
0.0
 10
4.305445944924366
 20
1.567501511052393
 42
-0.3277054968067132
 10
4.341227635637531
 20
1.539178965282749
 42
6.667889725900311
  0
LINE
  5
149
330
18
100
AcDbEntity
  8
TEXT
100
AcDbLine
 10
4.555019483729633
 20
1.462289532498962
 30
0.0
 11
4.511268712547732
 21
1.544539808495108
 31
0.0
  0
LINE
  5
14A
330
18
100
AcDbEntity
  8
TEXT
100
AcDbLine
 10
4.555019483729633
 20
1.56750151105239
 30
0.0
 11
4.555019483729633
 21
1.462289532498962
 31
0.0
  0
LINE
  5
14B
330
18
100
AcDbEntity
  8
TEXT
100
AcDbLine
 10
4.782703222668002
 20
1.491636184640852
 30
0.0
 11
4.782703222668002
 21
1.63296571681999
 31
0.0
  0
LINE
  5
14C
330
18
100
AcDbEntity
  8
TEXT
100
AcDbLine
 10
4.829801381223987
 20
1.56750151105239
 30
0.0
 11
4.782703222668002
 21
1.491636184640852
 31
0.0
  0
LINE
  5
14D
330
18
100
AcDbEntity
  8
TEXT
100
AcDbLine
 10
4.84023609798791
 20
1.457608268111416
 30
0.0
 11
4.904793213953615
 21
1.56750151105239
 31
0.0
  0
LINE
  5
14E
330
18
100
AcDbEntity
  8
TEXT
100
AcDbLine
 10
4.718868231445229
 20
1.301028478063879
 30
0.0
 11
4.78324641576385
 21
1.301028478063879
 31
0.0
  0
LWPOLYLINE
  5
14F
330
18
100
AcDbEntity
  8
TEXT
100
AcDbPolyline
 90
        2
 70
     0
 43
0.0
 10
4.558959161034671
 20
1.344519423014317
 42
-0.2901071551932486
 10
4.515883228167027
 20
1.301028478063879
 42
-5.328517124445184
  0
ARC
  5
153
330
18
100
AcDbEntity
  8
TEXT
100
AcDbCircle
 10
4.447028646510112
 20
1.474865441395627
 30
0.0
 40
0.028359375
100
AcDbArc
 50
25.78218179591245
 51
90.0
  0
LINE
  5
154
330
18
100
AcDbEntity
  8
TEXT
100
AcDbLine
 10
4.482829721814235
 20
1.465949842933492
 30
0.0
 11
4.472564961400671
 21
1.487200382506186
 31
0.0
  0
LINE
  5
155
330
18
100
AcDbEntity
  8
TEXT
100
AcDbLine
 10
4.400541732030852
 20
1.465949842933492
 30
0.0
 11
4.482829721814235
 21
1.465949842933492
 31
0.0
  0
LWPOLYLINE
  5
156
330
18
100
AcDbEntity
  8
TEXT
100
AcDbPolyline
 90
        4
 70
     1
 43
0.0
 10
4.495760763097134
 20
1.403992456047904
 10
4.407100444437276
 20
1.403992456047904
 42
0.9999999999999998
 10
4.407100444437276
 20
1.361593915544043
 10
4.495760763097134
 20
1.361593915544043
 42
1.0
  0
LWPOLYLINE
  5
15C
330
18
100
AcDbEntity
  8
TEXT
100
AcDbPolyline
 90
        2
 70
     0
 43
0.0
 10
4.38186581053565
 20
1.301028478063879
 10
4.515883228167027
 20
1.301028478063879
 42
0.9999999999999998
  0
LINE
  5
160
330
18
100
AcDbEntity
  8
TEXT
100
AcDbLine
 10
4.642220250152666
 20
1.503224816395624
 30
0.0
 11
4.718868231445224
 21
1.503224816395624
 31
0.0
  0
LINE
  5
161
330
18
100
AcDbEntity
  8
TEXT
100
AcDbLine
 10
4.718868231445224
 20
1.503224816395624
 30
0.0
 11
4.718868231445229
 21
1.301028478063879
 31
0.0
  0
ARC
  5
162
330
18
100
AcDbEntity
  8
TEXT
100
AcDbCircle
 10
4.642220250152664
 20
1.478318941112962
 30
0.0
 40
0.0249058752826653
100
AcDbArc
 50
89.99971217465335
 51
179.9999999999985
  0
LINE
  5
163
330
18
100
AcDbEntity
  8
TEXT
100
AcDbLine
 10
4.617314374870007
 20
1.301028478063879
 30
0.0
 11
4.617314374870002
 21
1.478318983495347
 31
0.0
  0
LWPOLYLINE
  5
164
330
18
100
AcDbEntity
  8
TEXT
100
AcDbPolyline
 90
        2
 70
     0
 43
0.0
 10
4.558959161034671
 20
1.301028478063879
 10
4.617314374870005
 20
1.301028478063879
  0
LWPOLYLINE
  5
168
330
18
100
AcDbEntity
  8
TEXT
100
AcDbPolyline
 90
        2
 70
     0
 43
0.0
 10
4.558959161034671
 20
1.344519423014317
 10
4.558959161034671
 20
1.301028478063879
  0
LINE
  5
16C
330
18
100
AcDbEntity
  8
TEXT
100
AcDbLine
 10
4.93572832135152
 20
1.301028478063879
 30
0.0
 11
4.84023609798791
 21
1.457608268111416
 31
0.0
  0
LINE
  5
16D
330
18
100
AcDbEntity
  8
TEXT
100
AcDbLine
 10
4.859149948975314
 20
1.301028478063879
 30
0.0
 11
4.93572832135152
 21
1.301028478063879
 31
0.0
  0
LINE
  5
16E
330
18
100
AcDbEntity
  8
TEXT
100
AcDbLine
 10
4.78324641576385
 20
1.432608046540059
 30
0.0
 11
4.859149948975314
 21
1.301028478063879
 31
0.0
  0
LINE
  5
16F
330
18
100
AcDbEntity
  8
TEXT
100
AcDbLine
 10
4.78324641576385
 20
1.301028478063879
 30
0.0
 11
4.78324641576385
 21
1.432608046540059
 31
0.0
  0
LINE
  5
170
330
18
100
AcDbEntity
  8
TEXT
100
AcDbLine
 10
4.782703222668002
 20
1.63296571681999
 30
0.0
 11
4.714388344118729
 21
1.63296571681999
 31
0.0
  0
ARC
  5
171
330
18
100
AcDbEntity
  8
TEXT
100
AcDbCircle
 10
4.474032605077523
 20
1.525917943931487
 30
0.0
 40
0.0416329381542859
100
AcDbArc
 50
26.56974201007528
 51
87.20939649401342
  0
LINE
  5
172
330
18
100
AcDbEntity
  8
TEXT
100
AcDbLine
 10
4.618916390029134
 20
1.56750151105239
 30
0.0
 11
4.555019483729633
 21
1.56750151105239
 31
0.0
  0
LINE
  5
173
330
18
100
AcDbEntity
  8
TEXT
100
AcDbLine
 10
4.618916390029134
 20
1.539953861191515
 30
0.0
 11
4.618916390029134
 21
1.56750151105239
 31
0.0
  0
ARC
  5
174
330
18
100
AcDbEntity
  8
TEXT
100
AcDbCircle
 10
4.650109207092242
 20
1.536255783770125
 30
0.0
 40
0.0314112657011332
100
AcDbArc
 50
95.88484768694724
 51
173.2388340632136
  0
LINE
  5
175
330
18
100
AcDbEntity
  8
TEXT
100
AcDbLine
 10
4.714388344118724
 20
1.56750151105239
 30
0.0
 11
4.646888626469207
 21
1.56750151105239
 31
0.0
  0
LINE
  5
176
330
18
100
AcDbEntity
  8
TEXT
100
AcDbLine
 10
4.714388344118729
 20
1.63296571681999
 30
0.0
 11
4.714388344118724
 21
1.56750151105239
 31
0.0
  0
LINE
  5
177
330
18
100
AcDbEntity
  8
TEXT
100
AcDbLine
 10
4.904793213953615
 20
1.56750151105239
 30
0.0
 11
4.829801381223989
 21
1.56750151105239
 31
0.0
  0
ENDSEC
  0
SECTION
  2
OBJECTS
  0
DICTIONARY
  5
C
330
0
100
AcDbDictionary
  3
ACAD_GROUP
350
D
  3
ACAD_LAYOUT
350
18B
  3
ACAD_MLINESTYLE
350
E
  3
ACAD_PLOTSETTINGS
350
18C
  3
ACAD_PLOTSTYLENAME
350
189
  3
ACDBHEADERROUNDTRIPXREC
350
196
  3
ACDBVARIABLEDICTIONARY
350
193
  0
DICTIONARY
  5
1B8
330
18
100
AcDbDictionary
280
     1
  3
ACAD_LAYOUTSELFREF
360
1B9
  0
DICTIONARY
  5
1B6
330
15
100
AcDbDictionary
280
     1
  3
ACAD_LAYOUTSELFREF
360
1B7
  0
DICTIONARY
  5
D
102
{ACAD_REACTORS
330
C
102
}
330
C
100
AcDbDictionary
  0
DICTIONARY
  5
18B
102
{ACAD_REACTORS
330
C
102
}
330
C
100
AcDbDictionary
  0
DICTIONARY
  5
E
102
{ACAD_REACTORS
330
C
102
}
330
C
100
AcDbDictionary
  3
STANDARD
350
1B
  0
DICTIONARY
  5
18C
102
{ACAD_REACTORS
330
C
102
}
330
C
100
AcDbDictionary
  0
ACDBDICTIONARYWDFLT
  5
189
102
{ACAD_REACTORS
330
C
102
}
330
C
100
AcDbDictionary
281
     1
  3
Normal
350
18A
100
AcDbDictionaryWithDefault
340
18A
  0
DICTIONARY
  5
196
102
{ACAD_REACTORS
330
C
102
}
330
C
100
AcDbDictionary
  3
CEPSNTYPE
350
1A0
  3
FINGERPRINTGUID
350
1A1
  3
HYPERLINKBASE
350
199
  3
INSUNITS
350
19F
  3
LAYOUTDICT
350
19B
  3
LWETCUNION
350
19E
  3
PLOTSETDICT
350
19C
  3
PLOTSTYLNAMDICT
350
19D
  3
PSVPSCALE
350
1A3
  3
PUCSBASE
350
1A6
  3
PUCSORGBACK
350
1AC
  3
PUCSORGBOTTOM
350
1A8
  3
PUCSORGFRONT
350
1AB
  3
PUCSORGLEFT
350
1A9
  3
PUCSORGRIGHT
350
1AA
  3
PUCSORGTOP
350
1A7
  3
PUCSORTHOREF
350
1A4
  3
PUCSORTHOVIEW
350
1A5
  3
STYLESHEET
350
19A
  3
TSTACKALIGN
350
197
  3
TSTACKSIZE
350
198
  3
UCSBASE
350
1AF
  3
UCSORGBACK
350
1B5
  3
UCSORGBOTTOM
350
1B1
  3
UCSORGFRONT
350
1B4
  3
UCSORGLEFT
350
1B2
  3
UCSORGRIGHT
350
1B3
  3
UCSORGTOP
350
1B0
  3
UCSORTHOREF
350
1AD
  3
UCSORTHOVIEW
350
1AE
  3
VERSIONGUID
350
1A2
  0
DICTIONARY
  5
193
102
{ACAD_REACTORS
330
C
102
}
330
C
100
AcDbDictionary
  3
DIMASSOC
350
194
  0
XRECORD
  5
1B9
102
{ACAD_REACTORS
330
1B8
102
}
330
1B8
100
AcDbXrecord
340
18
  0
XRECORD
  5
1B7
102
{ACAD_REACTORS
330
1B6
102
}
330
1B6
100
AcDbXrecord
340
15
  0
MLINESTYLE
  5
1B
102
{ACAD_REACTORS
330
E
102
}
330
E
100
AcDbMlineStyle
  2
STANDARD
 70
     0
  3

 62
     0
 51
90.0
 52
90.0
 71
     2
 49
0.5
 62
   256
  6
BYLAYER
 49
-0.5
 62
   256
  6
BYLAYER
  0
ACDBPLACEHOLDER
  5
18A
102
{ACAD_REACTORS
330
189
102
}
330
189
100
AcDbPlaceHolder
280
     0
  0
XRECORD
  5
1A0
102
{ACAD_REACTORS
330
196
102
}
330
196
100
AcDbXrecord
 90
        0
  0
XRECORD
  5
1A1
102
{ACAD_REACTORS
330
196
102
}
330
196
100
AcDbXrecord
  1
{1C0B6DF0-8DB3-11D6-88E6-0090279574E7}
  0
XRECORD
  5
199
102
{ACAD_REACTORS
330
196
102
}
330
196
100
AcDbXrecord
  1

  0
XRECORD
  5
19F
102
{ACAD_REACTORS
330
196
102
}
330
196
100
AcDbXrecord
 90
        0
  0
XRECORD
  5
19B
102
{ACAD_REACTORS
330
196
102
}
330
196
100
AcDbXrecord
340
18B
  0
XRECORD
  5
19E
102
{ACAD_REACTORS
330
196
102
}
330
196
100
AcDbXrecord
 90
    14877
  0
XRECORD
  5
19C
102
{ACAD_REACTORS
330
196
102
}
330
196
100
AcDbXrecord
340
18C
  0
XRECORD
  5
19D
102
{ACAD_REACTORS
330
196
102
}
330
196
100
AcDbXrecord
340
189
  0
XRECORD
  5
1A3
102
{ACAD_REACTORS
330
196
102
}
330
196
100
AcDbXrecord
 40
0.0
  0
XRECORD
  5
1A6
102
{ACAD_REACTORS
330
196
102
}
330
196
100
AcDbXrecord
340
0
  0
XRECORD
  5
1AC
102
{ACAD_REACTORS
330
196
102
}
330
196
100
AcDbXrecord
 10
0.0
 20
0.0
 30
0.0
  0
XRECORD
  5
1A8
102
{ACAD_REACTORS
330
196
102
}
330
196
100
AcDbXrecord
 10
0.0
 20
0.0
 30
0.0
  0
XRECORD
  5
1AB
102
{ACAD_REACTORS
330
196
102
}
330
196
100
AcDbXrecord
 10
0.0
 20
0.0
 30
0.0
  0
XRECORD
  5
1A9
102
{ACAD_REACTORS
330
196
102
}
330
196
100
AcDbXrecord
 10
0.0
 20
0.0
 30
0.0
  0
XRECORD
  5
1AA
102
{ACAD_REACTORS
330
196
102
}
330
196
100
AcDbXrecord
 10
0.0
 20
0.0
 30
0.0
  0
XRECORD
  5
1A7
102
{ACAD_REACTORS
330
196
102
}
330
196
100
AcDbXrecord
 10
0.0
 20
0.0
 30
0.0
  0
XRECORD
  5
1A4
102
{ACAD_REACTORS
330
196
102
}
330
196
100
AcDbXrecord
340
0
  0
XRECORD
  5
1A5
102
{ACAD_REACTORS
330
196
102
}
330
196
100
AcDbXrecord
 70
     0
  0
XRECORD
  5
19A
102
{ACAD_REACTORS
330
196
102
}
330
196
100
AcDbXrecord
  1

  0
XRECORD
  5
197
102
{ACAD_REACTORS
330
196
102
}
330
196
100
AcDbXrecord
 90
        1
  0
XRECORD
  5
198
102
{ACAD_REACTORS
330
196
102
}
330
196
100
AcDbXrecord
 90
       70
  0
XRECORD
  5
1AF
102
{ACAD_REACTORS
330
196
102
}
330
196
100
AcDbXrecord
340
0
  0
XRECORD
  5
1B5
102
{ACAD_REACTORS
330
196
102
}
330
196
100
AcDbXrecord
 10
0.0
 20
0.0
 30
0.0
  0
XRECORD
  5
1B1
102
{ACAD_REACTORS
330
196
102
}
330
196
100
AcDbXrecord
 10
0.0
 20
0.0
 30
0.0
  0
XRECORD
  5
1B4
102
{ACAD_REACTORS
330
196
102
}
330
196
100
AcDbXrecord
 10
0.0
 20
0.0
 30
0.0
  0
XRECORD
  5
1B2
102
{ACAD_REACTORS
330
196
102
}
330
196
100
AcDbXrecord
 10
0.0
 20
0.0
 30
0.0
  0
XRECORD
  5
1B3
102
{ACAD_REACTORS
330
196
102
}
330
196
100
AcDbXrecord
 10
0.0
 20
0.0
 30
0.0
  0
XRECORD
  5
1B0
102
{ACAD_REACTORS
330
196
102
}
330
196
100
AcDbXrecord
 10
0.0
 20
0.0
 30
0.0
  0
XRECORD
  5
1AD
102
{ACAD_REACTORS
330
196
102
}
330
196
100
AcDbXrecord
340
0
  0
XRECORD
  5
1AE
102
{ACAD_REACTORS
330
196
102
}
330
196
100
AcDbXrecord
 70
     0
  0
XRECORD
  5
1A2
102
{ACAD_REACTORS
330
196
102
}
330
196
100
AcDbXrecord
  1
{1C0B6DF2-8DB3-11D6-88E6-0090279574E7}
  0
DICTIONARYVAR
  5
194
102
{ACAD_REACTORS
330
193
102
}
330
193
100
DictionaryVariables
280
     0
  1
1
  0
ENDSEC
  0
EOF
